Silbermond - Symphonie tab

-------------------------------------------------------------------------
SYMPHONIE - Silbermond
-------------------------------------------------------------------------

These are the TABs for Silbermonds Symphonie, backstage version.
I wrote them down from Thomas (Silbermonds guitarist) guitar lesson.
But for all that I cannot give a guarantee for totally correctness.
Here is the link: http://www.youtube.com/watch?v=oT8_vFj7zfE
The song is not very difficult. I play the guitar for just one year and I managed it to 
it in 2 or 3 weeks after translating the video.
Have fun! :)

Tabbed by: Balthasar1987
Email: balthasar1987@yahoo.de
Tuning: Standard
Capo on 1st fret
h... hammer on
p... pull off


1st verse

e|-----0-----------------0-------------------------------|
B|-------3-----3-----------3---3---------3---------3-----|
G|---------0-----0-----------0---0---------0---------0---|
D|---0-------------0---0-----------0---0-----0---0-----0-|
A|-----------------------------------3---------2---------|
E|-3---------3-------0-----------------------------------|


e|-0-----------2--0----0-------|
B|-3----3------2--2------3-----|
G|-2------2----2--0--0-----0h2-|
D|-2--2--------2--0------------|
A|-0--------0--0--3------------|
E|-0-----------0--0------------|


e|----------------------2----2------3--0--0----0---------0-----|
B|-----3---------3------3------3----3--3--3------3---------3---|
G|-------0---------0----0--0-----0--0--2--0--0-----0---0-----0-|
D|---0-----0---0-----0--0-----------0--0--2--------------------|
A|----------------------0-----------0--0--2--------------------|
E|-3---------3----------3-----------3--2--0----------0---------|


e|-3----3-----2-----0-----------------------------------|
B|-3------3-----3-----3---3-----3---------3-------3-----|
G|-0--0-----0-----0---------------0---------0-------0---|
D|-2--------------------------0-----0---0-----0-------0-|
A|-2--------------------2---3---------2---------2-------|
E|-0----------------------------------------------------|


e|-0-----------2---------0---------0----------|
B|-3----3------2--2------3----3----3--3-------|
G|-2------2----2----2----0------3--0----0h2-0-|
D|-2--2--------2------2--0--0------0----------|
A|-0--------0--0---------3---------3----------|
E|-0-----------0---------0---------x----------|


Chorus

e|---------0---------------0---------------0----------------0----------|
B|-----3-------3-------3-------3-------3-------3-------3----3--3-------|
G|-------0---0---0---0---0---0---0---2---2---2---2---2---2--0----0h2-0-|
D|---0------------------------------------------------------0----------|
A|----------------------------------------------------------3----------|
E|-3---------------3---------------2---------------2--------x----------|


e|---------0-------------2---2h3--------------------------------0----------|
B|-----3-------3-------3---3-----3-----------3-----3---------3--3--3-------|
G|---0---0---0---0---2-------------2-------0---------0-----2----0----0h2-0-|
D|-----------------0---------------------0-------0-------2------0----------|
A|-----------------------------------2-3-------2-------0--------3----------|
E|-0------------------------------------------------------------x----------|


e|---------0---------------0---------------0----------------0----------|
B|-----3-------3-------3-------3-------3-------3-------3----3--3-------|
G|-------0---0---0---0---0---0---0---2---2---2---2---2---2--0----0h2-0-|
D|---0------------------------------------------------------0----------|
A|----------------------------------------------------------3----------|
E|-3---------------3---------------2---------------2--------x----------|


e|---------0-------------2---2h3--------------------------------0----------|
B|-----3-------3-------3---3-----3-----------3-----3---------3--3--3-------|
G|---0---0---0---0---2---------------------0---------0-----2----0----0h2-0-|
D|-----------------0-----------------0---0-------0-------2------0----------|
A|---------------------------------0---3-------2-------0--------3----------|
E|-0------------------------------------------------------------x----------|


On the following two TAB-tables you can only see which strings are used. To know how to 
it, please watch the video on youtube I linked above.

2nd verse

e|-3--2--3--3--3--2--3--3------3--3--3--2--3--2--0--3--2--3-|
B|-3--3--3--3--3--3--3--3------3--3--3--2--3--3--3--3--3--3-|
G|-0--0--0--2--0--0--0--0------0--0--2--2--0--0--0--0--0--0-|
D|-0--0--0--0--2--0--0--0------0--0--2--2--0--0--0--0--0--0-|
A|-0--0--0--0--2--2--2--2p0h2--3--2--0--0--3--3--3--0--0--0-|
E|-3--3--3--2--0--0--0--0------0--0--0--0--0--0--0--3--3--3-|


e|-3--2--0--2--3--3--2--2h3p2--2p0--x-----x--x--x-----x--x--x-----0----|
B|-3--3--3--3--3--3--3--3------3----x-----3--x--x-----3--x--x-----3----|
G|-2--2--2--2--2--0--2--2------2----x-----0--x--x-----0--x--x-----2----|
D|-0--0--0--0--0--2--0--0------0----0-----0--0--0-----0--0--2--2--2----|
A|-0--0--0--0--0--2--0--0------0----3--3--x--3--2--2--x--2--0--0--x--0-|
E|-2--2--2--2--2--0--2--2------2----0-----x--0--0-----x--0--0-----x----|


Bridge

e|-0-------------------------------0-----------2--0----0-------0---|
B|-3--3-----------3---------3------3----3------2--3------3-------3-|
G|-0----0h2-0-------0---------0----2------2----2--0--0-------0-----|
D|-0------------0-----0---0-----0--2--2--------2--0----------------|
A|-0----------3---------2----------0--------0--0--3--------3-------|
E|-3-------------------------------0-----------0--0----------------|


e|-2-------3-------5-----3--------------0---|
B|-3----3--3----3--3-----3------3---------3-|
G|-0-------0-------0-----0--------0---0-----|
D|-0-------0-------0-----0----0-------------|
A|-3--3----3--3----3-----3------------------|
E|-x-------x-------x--0--x--3-------3-------|


For the last tables same as for 2nd verse.

Chorus and outro

e|-3--2h3p2--2p0--3--3--3--3--3--2--3--0--0--2--3--3--2h3p2--2p0-|
B|-3--3------3----3--3--3--3--3--3--3--3--3--3--3--3--3------3---|
G|-0--2------2----0--0--2--0--0--0--0--2--2--2--2--0--2------2---|
D|-2--0------0----0--0--2--0--0--0--0--0--0--0--0--2--0------0---|
A|-2--0------0----3--2--0--3--0--0--0--0--0--0--0--2--0------0---|
E|-0--2------2----0--0--0--0--3--3--3--3--2--2--2--0--2------2---|


e|-x-----0--x--x-----0--x--x-----0-----0-----------3-|
B|-x-----3--x--x-----3--x--x-----3-----3--3--------3-|
G|-x-----0--x--x-----0--x--x-----2-----0----0h2-0--0-|
D|-0-----0--0--0-----0--0--2--2--2-----0-----------0-|
A|-3--3--x--3--2--2--x--2--0--0--x--0--3-----------0-|
E|-0-----x--0--0-----x--0--0-----x-----x-----------3-|
Tap to rate this tab
 
# A B C D E F G H I J K L M N O P Q R S T U V W X Y Z