Guitaretab - guitar tabs
Song name
# A B C D E F G H I J K L M N O P Q R S T U V W X Y Z

Silencer - Death - Pierce Me tab

#------------------------------------PLEASE  NOTE-----------------------------------------------#
#This file is the author's own work and represents their interpretation of the #
#song. You may only use this file for private study, scholarship, or research#
#-----------------------------------------------------------------------------------------------#

Band   Silencer 
Album: Death - Pierce Me
Song:  Death - Pierce Me

Transcribed By: Elathen
Email:         ningalia87@yahoo.com

Copyright (c)  Prophecy Productions
Version 1.0 - 31/12/2007

Tuning E A D G B E


. - palm mute / - slide up to
 - slide down to ~ - vibrato
h - hammer on p - pull off
, - slight palm mute () - ghost note, sustained note
" " tremolo note <> - Trill

Suffixes for bend
f - full bend h - half bend
ph - pinched harmonic q - quarter bend
t - tap bend * - see comment
^ - Hold bend r - release bend
x  Staccato ~ - vibrato bend

 
Interlude - Riff  A: gtr1             
|----------------------------------------------------| 
|---------1---------0--------------------------------| 
|-----0--------2---------0-----2----0----------------|  
|-0--------------------------------------------------|
|----------------------------------------------------|
|----------------------------------------------------| 

Riff B: gtr2              x2                                    x2
|---------------------------|-------------------------------------|
|-5-------------------------|---5----5h7------5-------------------| 
|-----5----4----------------|----------------------5--------------| 
|--------------5---[4]------|-------------------------------------| 
|---------------------------|-------------------------------------|
|---------------------------|-------------------------------------|
[ Tab from: http://www.guitaretab.com/s/silencer/101170.html ]
                                              
|-------------------------------------------------|
|-------------------------------------------------| 
|-5---7--5---4----4h5--4--------------------------| 
|----------------------------5--4-----------------|  
|-------------------------------------------------|
|-------------------------------------------------|

riff 1 A             x8  riff 1 B                          x8
|----------------------|-------------------------------------|
|----------------------|-------------------------------------| 
|--------------2"------|-------------------------------------|
|--4"---5"-----4"------|---3"-----4"----4"-------------------|  
|--0"---0"-----0"------|---0"-----0"----6"-------------------|
|----------------------|----------------0"-------------------|

(Repeated under the entire riff)
|------------|
|------------| 
|------------| 
|-4h5--------| gtr2
|------------|
|------------|

|-----------------------------------------------------------|
|-----------------------------3"----------------------------| 
|--3"-------2"----------------5"-------2"-------------------| 
|--5"-------5"-------5"----------------4"-------------------|  
|--------------------7"-------------------------------------|
|-----------------------------------------------------------|

Play Riff 1 A x 4

Play Riff 2 x 8

|-----------------------------------------------------| 
|---3"--2"----------6"----2"--------------------------| 
|---4"--4"---4"-----4"----4"--------------------------|  
|------------6"---------------------------------------|
|-----------------------------------------------------|
|-----------------------------------------------------|

Play Riff 2 x 2

(...Piano break part then)

Play riff A 1 x 6

Play Riff 2 x 4 (with slight variation)

Fade out with this riff.
|-----------------------------------------|
|-----------------------------------------| 
|-----------------------------------------| 
|--9"--7"-----6"-----9"-------------------|  
|--6"--6"-----5"-----5"-------------------|
|-----------------------------------------|

End.


Related for Death - Pierce Me tab