Song name
# A B C D E F G H I J K L M N O P Q R S T U V W X Y Z

Silencer - Sterile Nails And Thunderbowels tab

Artist: Silencer
Song: Sterile Nails and Thunderbowels
Álbum: Death, Pierce Me


Para una mejor comprensión:
For better understanding:

|-----------------------------|---------------------------------|
|-----------------------------|---------------------------------|
|--0--2--2h3----------3--2-0--|--0--2--2h3----------5--3--2-----|
|-------------3----0----------|-------------3----0-----------0--| X4
|-----------------------------|---------------------------------|
|-----------------------------|---------------------------------|

|--------------------|    |----------------|--------------------|
|--------------------|    |----------------|--------------------|
|------3-------------|    |-----3----------|------3-------------|
|--5-----------------| X2 |--5-----3-------|--5-----------------|
|----------5---------|    |------------5---|----------5---------|
|--------------3--3--|    |--------------3-|--------------3--3--|

|--------------------------------------------|
|--------------------------------------------|
|--------------------------------------------|
|--------------------------------------------| X2
|--5-5-5/8-8-8-8/5-5-5/8-8-8-8/5-5-5/7-7-7-7-|
|--3-3-3/6-6-6-6/3-3-3/6-6-6-6/3-3-3/5-5-5-5-|

|----------|---------------|-------|-----------------------------|
|----------|---------------|-------|---------------------------4-|
|--tr-3----|-tr-2-3-5-3-2--|-tr-3--|-tr-2-3-5--3-7--3-2--0-------|
|----------|---------------|-------|------------------------0----| X3
|----------|---------------|-------|-----------------------------|
|----------|---------------|-------|-----------------------------|

|----------------|-----------------|-----------------|----------------|
|----------------|-----------------|-----------------|----------------|
|----------------|-----------------|-----------------|----------------|
|--------3---0---|-----------------|-----------------|--------3---0---|
|-----1----------|-----1-----------|----1------------|-----1----------|
|--3-----------3-|--3-----1---1h3-3|--3-----1---1h3-3|--3-----------3-|

|-----------------|-----------------|
|-----------------|-----------------|
|-----------------|-----------------|
|-----------------|-----------------|
|-----1-----------|-----1-----------|
|--3-----1---1h3-3|--3-----1---1h3-3|

|----------------|    |------------------|------------------|
|----------------|    |------------------|------------------|
|--0--3--2--0--0-|    |----------3--2----|----------3--2--0-|
|----------------| X2 |--1--1h3--------0-|--1--1h3--------0-|
|----------------|    |------------------|------------------|
|----------------|    |------------------|------------------|

|----------------|    |------------------|------------------|
|----------------|    |------------------|------------------|
|--0--3--2--0--0-|    |----------3--2----|----------3--2--0-|
|----------------| X2 |--1--1h3--------0-|--1--1h3--------0-|
|----------------|    |------------------|------------------|
|----------------|    |------------------|------------------|

|-------------------------------|-------------------------------|
|-------------------------------|-------------------------------|
|-------------------------------|-------------------------------|
|-------------------------------|-------------------------------| X2
|--------5-----4--------4-5-4---|--------5-----4--------4-------|
|--tr-3-----3-----3--5--------2-|--tr-3-----3-----3--5-----3-5-2|

|-------------------------------|
|-------------------------------|
|-------------------------------|
|-------------------------------| X1
|--------5-----4--------4-5-4---|
|--tr-3-----3-----3--5--------2-|

|-------------------------------||-----------------------------|
|-------------------------------||-----------------------------|
|--------7-----6-------6--------||-------7-----6-------6-7-6---|
|--tr-5-----5-----5-7-----5-7-4-||-tr-5-----5-----5-7--------4-|
|-------------------------------||-----------------------------|
|-------------------------------||-----------------------------|

|--------------------------------------------|
|--------------------------------------------|
|--------------------------------------------|
|--------------------------------------------| X2
|--5-5-5/8-8-8-8/5-5-5/8-8-8-8/5-5-5/7-7-7-7-|
|--3-3-3/6-6-6-6/3-3-3/6-6-6-6/3-3-3/5-5-5-5-|

|----------|---------------|-------|-----------------------------|
|----------|---------------|-------|---------------------------4-|
|--tr-3----|-tr-2-3-5-3-2--|-tr-3--|-tr-2-3-5--3-7--3-2--0-------|
|----------|---------------|-------|------------------------0----|
|----------|---------------|-------|-----------------------------|
|----------|---------------|-------|-----------------------------|

|----------|---------------|-------|-----------------------------|
|----------|---------------|-------|-----------------------------|
|--tr-3----|-tr-2-3-5-3-2--|-tr-3--|-tr-2-3-5--3-7--3-2--0-------|
|----------|---------------|-------|------------------------0----|
|----------|---------------|-------|-----------------------------|
|----------|---------------|-------|-----------------------------|

|----------|---------------|-------|-----------------------------|
|----------|---------------|-------|---------------------------4-|
|--tr-3----|-tr-2-3-5-3-2--|-tr-3--|-tr-2-3-5--3-7--3-2--0-------|
|----------|---------------|-------|------------------------0----|
|----------|---------------|-------|-----------------------------|
|----------|---------------|-------|-----------------------------|
Tap to rate this tab
# A B C D E F G H I J K L M N O P Q R S T U V W X Y Z