Song name
# A B C D E F G H I J K L M N O P Q R S T U V W X Y Z

Silencers - I Want You tab

----------------------------------------------------------------------
                       I WANT YOU - The Silencers
----------------------------------------------------------------------
Tabbed by: Bob Miller
E-mail: onefinebob at gmail dot com
Tuning: Standard,  with capo on the 2nd fret to play with the recording

INTRO:
e|0-0---0---0---0-|--0---0---0---0-|--0---0---0---0-*||
B|--------3--2-0--|---0-2--3--2-0--|0--0-0--0--0---- || (Play 3X)
G|2--2-2----------|2---------------|-------------2--*||

                                               Well I
e|0-0---0---0---0-|--0---0---0---0-|--0---0---0---0-|
B|--------3--2-0--|---0-2--3--2-0--|0--0-0--0--0----|
G|2--2-2----------|2---------------|-------------2--|

VERSE 1:                             
 want to paint your picture with that great look in your eyes, And I
e|0---------------|0----0--0----00-|------0---0---0-|--0---0---0---0-|
B|----------------|----------------|3----3--3----3--|0--0-0--0--0----|
G|2---------------|---2-------2----|---2-------2----|-------------2--|

 want to write a song so gentle,     It could make you cry.         I 
e|0-----0-0-----0-|0-----0-0-----0-|------0---0---0-|--0---0---0---0-|
B|----------------|----------------|3----3--3----3--|0--0-0--0--0-0--|
G|---2-2-----2-2--|---2-2-----2-2--|---2-------2----|----------------|

CHORUS:
want the world and all it's charms, and nothing else will do.     And
e|--0---0---0---0-|--0---0---0---0-|--0---0---0---0-|--0---0---0---0-|
B|2-------0---2---|0---------------|3---2---0-------|0--0-0--0--0-0--|
G|----2-----------|---2-2--2--2-2--|------------2---|----------------|

  Hey,                       I want
e|--0---0---0---0-|--0---0---0---0-|
B|3----3--3----3--|3----3--3----3--|
G|2--2----2--2----|2--2----2--2----|

 you...                                  
e|0-0---0---0---0-|--0---0---0---0-|--0---0---0---0-|
B|--------3--2-0--|---0-2--3--2-0--|0--0-0--0--0----| 
G|2--2-2----------|2---------------|-------------2--|
D|----------------|----------------|----------------|
A|0---------------|----------------|----------------|
E|----------------|----------------|0---------------|

                                               Well I 
e|0-0---0---0---0-|--0---0---0---0-|--0---0---0---0-|
B|--------3--2-0--|---0-2--3--2-0--|0--0-0--0--0----| 
G|2--2-2----------|2---------------|-------------2--|
D|----------------|----------------|----------------|
A|0---------------|----------------|----------------|
E|----------------|----------------|0---------------|

VERSE 2:
  want a roaring city         And I want a healing sun          And I
e|0-0--00-0-0--00-|0-0--00-0-0--00-|--0---0---0---0-|--0---0---0---0-|
B|----------------|----------------|3----3--3----3--|0--0-0--0--0----|
G|---2-------2----|---2-------2----|---2-------2----|-------------2--|
D|----------------|----------------|0--0----0--0----|----------------|
A|0--0----0--0----|0--0----0--0----|----------------|----------------|
E|----------------|----------------|----------------|0--0----0--0----|

  want a magic     wilderness where    we can be as  one            I
e|0-0--00-0-0--00-|0-0--00-0-0--00-|--0---0---0---0-|--0---0---0---0-|
B|----------------|----------------|3----3--3----3--|0--0-0--0--0----|
G|---2-------2----|---2-------2----|---2-------2----|-------------2--|
D|----------------|----------------|0--0----0--0----|----------------|
A|0--0----0--0----|0--0----0--0----|----------------|----------------|
E|----------------|----------------|----------------|0--0----0--0----|

CHORUS: 
want the world and all it's charms, and nothing else will do.     And
e|--0---0---0---0-|--0---0---0---0-|--0---0---0---0-|--0---0---0---0-|
B|2-------0---2---|0---------------|3---2---0-------|0--0-0--0--0-0--|
G|----2-----------|---2-2--2--2-2--|------------2---|----------------|
D|----------------|----------------|0--0----0--0----|----------------|
A|0--0----0--0----|0--0----0--0----|----------------|----------------|
E|----------------|----------------|----------------|0--0----0--0----|

  Hey,                        I want
e|--0---0---0---0-|--0---0---0---0-|
B|3----3--3----3--|3----3--3----3--|
G|2--2----2--2----|2--2----2--2----|
D|0--0----0--0----|0--0----0--0----|
A|----------------|----------------|
E|----------------|----------------|

 you....                                       I want
e|0-0---0---0---0-|--0---0---0---0-|--0---0---0---0-|
B|--------3--2-0--|---0-2--3--2-0--|0--0-0--0--0----|
G|2--2-2----------|2---------------|-------------2--|
D|----------------|----------------|----------------|
A|0--0----0--0----|0--0----0--0----|----------------|
E|----------------|----------------|0--0----0--0----|

 you.  
e|0-0---0---0---0-|--0---0---0---0-|--0---0---0---0-|
B|--------3--2-0--|---0-2--3--2-0--|0--0-0--0--0----| 
G|2--2-2----------|2---------------|-------------2--|
D|----------------|----------------|----------------|
A|0--0----0--0----|0--0----0--0----|----------------|
E|----------------|----------------|0--0----0--0----|

BRIDGE:
                  Hey...ah......oh woah....          (Play this line 2X)
e||---0---0---------|--0--0----------|0-0---0-020---0-|0-0---0-020------||
B||*-----3--02-3-20-|------2-02-3----|----------------|--------------3-*||
G||-2--2------------|2--2------------|2--2-2--2--2-2--|2--2-2--2--2-2---||
D||-----------------|----------------|----------------|-----------------||
A||*0--0----0--0----|0--0----0--0----|0--0----0--0----|0--0----0--0----*||
E||-----------------|----------------|----------------|-----------------||


e|3-3---3-3--3----|5-5---5-5--5----|0-0---0-020---0-|0-0---0-020-----|
B|---3-----3---3--|---5-----5---5--|----------------|--------------3-|
G|4----4----4---4-|6----6----6---6-|2--2-2--2--2-2--|2--2-2--2--2-2--|
D|----------------|----------------|----------------|----------------|
A|5--5----5--5----|7--7----7--7----|0--0----0--0----|0--0----0--0----|
E|----------------|----------------|----------------|----------------|


e|3-3---3-3--3----|5-5---5-5--5----|0-0---0-020---0-|
B|---3-----3---3--|---5-----5---5--|----------------|
G|4----4----4---4-|6----6----6---6-|2--2-2--2--2-2--|
D|----------------|----------------|----------------|
A|5--5----5--5----|7--7----7--7----|0--0----0--0----|
E|----------------|----------------|----------------|

                               (Well I...)
e|--0---0---0---0-|--0---0---0---0-|
B|0--0----0--0----|0--0----0--0----|
G|----------------|----------------|
D|----------------|----------------|
A|----------------|----------------|
E|0--0----0--0----|0--0----0--0----|

VERSE 3:
       A
Well I want to be your soldier

      Dadd9            Esus4
And I want to be your friend

      A
And I want to be your dancing fool and

Daad9            Esus4
Dance you to the end

CHORUS:
  A
I want the world and all it's charms

    Dadd9             Esus4
And nothing else will do

    Dadd9                Esus4
And hey, and hey, and hey,
         A
I want you                                              I want
         e|0-0---0---0---0-|--0---0---0---0-|--0---0---0---0-|
         B|--------3--2-0--|---0-2--3--2-0--|0--0-0--0--0----|
         G|2--2-2----------|2---------------|-------------2--|
         D|----------------|----------------|----------------|
         A|0---------------|0---------------|----------------|
         E|----------------|----------------|0---------------|

  you...
e|0-0---0---0---0-|--0---0---0---0-|--0---0---0---0--||
B|--------3--2-0--|---0-2--3--2-0--|0--0-0--0--0----*|| (Repeat 
G|2--2-2----------|2---------------|-------------2---||  and fade)
D|----------------|----------------|-----------------||
A|0---------------|0---------------|----------------*||
E|----------------|----------------|0----------------||

CHORDS:
    A: X02220
Dadd9: XX0230
Esus4: 022200, or X22200, or XX2200, your choice!

=======================================================================
Tap to rate this tab
 
# A B C D E F G H I J K L M N O P Q R S T U V W X Y Z