Song name
# A B C D E F G H I J K L M N O P Q R S T U V W X Y Z

Silent Civilian - Wrath tab

----------------------------------------------------------------------------
			     wrath - silent civilian
----------------------------------------------------------------------------


Tabbed by: sean crow 
Email:  die_for_nothing_323@hotamil.com   I'm determined to finish the album
aim: blackorange555                        so if u want a song doin before  
Tuning: DADGBe                             any others pm or email me!!
Real song: CGCFAd

                  I checked out the other tab for this so i 
                  decided to do this one again cos it wasn't completed,
                  the other's more in depth tho but mine is still good and  
                  easier to read (completed too)...if u want the solo
                  check the other one out cos its in there!! I cant tab
                  solos cos ive been playin only 9months and aint that
                  good yet!!        ******PLEASE RATE AND COMMENT******


e|----------------------------------------------------------------|
B|----------------------------------------------------------------|
G|----------------------------------------------------------------|
D|-------------------5---3---7---5---3---5p3---2---3p2---0---2h3--| Play 
A|---3---5---8---7------------------------------------------------|  8x
D|-0---0---0---0---0---0---0---0---0---0-----0---0-----0---0------|
   .   .   .   .   .   .   .   .   .   .     .   .     .   .
e|-------------------------------------------------|
B|-------------------------------------------------|
G|-------------------------------------------------|
D|-------------------7-5---------------5-----7---8-|  Play
A|-0000-5-8-7-5-0000-----8-7------8----5-555-7-7-8-|   8x 
D|-0000---------0000---------8-888-888-5-555-7-7-8-|
   ....         ....           ...  ..   ...   .
e|-------------------------------------------------------------------|
B|-------------------------------------------------------------------|
G|-------------------------------------------------------------------|
D|-7-----------10-8-7----7--------8------------12-10-8----8----------|
A|-7---8---7----------10---10-8-7-8---10---8-----------12---12-10-8--|
D|-7-7---7---7--------------------8-8----8---8-----------------------|
     .   .   .                      .    .   .
e|-------------------------------------------------------------------|
B|-------------------------------------------------------------------|
G|-------------------------------------------------------------9^----|
D|-7-----------10-8-7----7--------8--------------------8-10-12----12-|
A|-7---8---7----------10---10-8-7-8---10---8---8-10-12---------------|
D|-7-7---7---7--------------------8-8----8---8-----------------------|
     .   .   .                      .    .   .
e|--------------------------|
B|--------------------------|
G|--------------------------|  Play
D|-0~~-3~~-8~~-7~~-10~-11~--|   2x
A|-0~~-3~~-8~~-7~~-10~-11~--|
D|-0~~-3~~-8~~-7~~-10~-11~--|

e|----------------------|
B|----------------------|
G|----------------------|  2 guitars play the first part of
D|-0-0-000-----000-000--|   this bit alternatively but i prefer 
A|-0-0-000(x3)-000-000--|    to play both cos it sounds bare if not!
D|-0-0-000-----000-000--|
   . . ...     ... ...
e|-------------------------------------------------|
B|-------------------------------------------------|
G|-------------------------------------------------|
D|-------------------7-5---------------5-----7---8-|  Play
A|-0000-5-8-7-5-0000-----8-7------8----5-555-7-7-8-|   6x 
D|-0000---------0000---------8-888-888-5-555-7-7-8-|
   ....         ....           ...  ..   ...   .
e|-------------------------------------------------------------------|
B|-------------------------------------------------------------------|
G|-------------------------------------------------------------------|
D|-7-----------10-8-7----7--------8------------12-10-8----8----------|
A|-7---8---7----------10---10-8-7-8---10---8-----------12---12-10-8--|
D|-7-7---7---7--------------------8-8----8---8-----------------------|
     .   .   .                      .    .   .
e|-------------------------------------------------------------------|
B|-------------------------------------------------------------------|
G|-------------------------------------------------------------9^----|
D|-7-----------10-8-7----7--------8--------------------8-10-12----12-|
A|-7---8---7----------10---10-8-7-8---10---8---8-10-12---------------|
D|-7-7---7---7--------------------8-8----8---8-----------------------|
     .   .   .                      .    .   .
e|--------------------------|
B|--------------------------|
G|--------------------------|  Play
D|-0~~-3~~-8~~-7~~-10~-11~--|   2x
A|-0~~-3~~-8~~-7~~-10~-11~--|
D|-0~~-3~~-8~~-7~~-10~-11~--|

e|-------------------------------------------------------------------|
B|-------------------------------------------------------12*---------|
G|------10----9-9-7-7-------14----12-12-10-10------10----------------|
D|-0-----x(x4)x-x-x-x-0------x(x4)-x--x--x--x-8-----x(x4)---5~~7~~8~~|
A|-0(x8)-8----7-7-5-5-0(x8)-12-----8--8--8--8-8(x8)-8-------5~~7~~8~~|
D|-0------------------0-----------------------8-------------5~~7~~8~~|
   .                  .                       .
e|--------------------------------------------------------------------|
B|--------------------------------------------------------------------|
G|------10-----9-9-7-7------10-----9-9-7-7------10-----12\------------|
D|-0-----x(x4)-x-x-x-x-0-----x(x4)-x-x-x-x-8-----x(x4)--x\--5~~7~~8~~-|
A|-0(x8)-8-----7-7-5-5-0(x8)-8-----7-7-5-5-8(x8)-8-----10\--5~~7~~8~~-|
D|-0-------------------0-------------------8----------------5~~7~~8~~-|
   .                   .                   .
 
          ********** SOLO STARTS (BACKING GUITAR) **********

e|--------------------------------------------------------------------|
B|--------------------------------------------------------------------|
G|------10-----9-9-7-7------10-----9-9-7-7------10-----12\------------| Play
D|-0-----x(x4)-x-x-x-x-0-----x(x4)-x-x-x-x-8-----x(x4)--x\--5~~7~~8~~-|  4x
A|-0(x8)-8-----7-7-5-5-0(x8)-8-----7-7-5-5-8(x8)-8-----10\--5~~7~~8~~-|
D|-0-------------------0-------------------8----------------5~~7~~8~~-|
   .                   .                   .

          ********** SOLO ENDS (BACKING GUITAR) **********
        
e|-----------------------------------------------------------------------|
B|-----------------------------------------------------------------------|
G|-----------------------------------------------------------------------|
D|---------777755----------101010108877--------33335555------------------|
A|-55555555------8855555555------------33333333---------0000000022223333-|
D|-----------------------------------------------------------------------|
   .....................................................................
e|---------------------------------------------------------------------|
B|---------------------------------------------------------------------|
G|---------------------------------------------------------------------|
D|---------777755----------101010108877--------33335555-------------3--|
A|-55555555------8855555555------------33333333---------0000000022223--|
D|------------------------------------------------------------------3--|

e|----------------------------------------------------------------|
B|----------------------------------------------------------------|
G|----------------------------------------------------------------|
D|-------------------5---3---7---5---3---5p3---2---3p2---0---2h3--| Play 
A|---3---5---8---7------------------------------------------------|  4x
D|-0---0---0---0---0---0---0---0---0---0-----0---0-----0---0------|
   .   .   .   .   .   .   .   .   .   .     .   .     .   .

PICK SCRAPE

e|--------------------------|
B|--------------------------|
G|--------------------------|  Play
D|-0~~-3~~-8~~-7~~-10~-11~--|   2x
A|-0~~-3~~-8~~-7~~-10~-11~--|
D|-0~~-3~~-8~~-7~~-10~-11~--|

e|-------------------------------------------|
B|-------------------------------------------|
G|-------------------------------------------|
D|-0------3------8------7-----10-----11------|  Play 
A|-0(x16)-3(x16)-8(x16)-7(x8)-10(x4)-11(x4)--|   2x
D|-0------3------8------7-----10-----11------|

e|-------------------------------------------------------|
B|-------------------------------------------------------|
G|-------------------------------------------------------|
D|-0~~-3~~-8~~-7~~-10~~-11~~-0~~~~~~~~~~~~~~~~~~~~~~--0--|  THE END!!!
A|-0~~-3~~-8~~-7~~-10~~-11~~-0~~~~~~~~~~~~~~~~~~~~~~--0--|
D|-0~~-3~~-8~~-7~~-10~~-11~~-0~~~~~~~~~~~~~~~~~~~~~~--0--|
Tap to rate this tab
# A B C D E F G H I J K L M N O P Q R S T U V W X Y Z