Guitaretab - guitar tabs
Song name
# A B C D E F G H I J K L M N O P Q R S T U V W X Y Z

Silent Civilian - Divided tab

----------------------------------------------------------------------------
			     divided - silent civilian
----------------------------------------------------------------------------
Tabbed by: sean crow
Email: die_for_nothing_323@hotmail.com
 
Tuning:  DADGBe  (real song CGCFAd)    

This is by far the best of my tabs!!  so please COMMENT + RATE THIS ONE!!

instead of a key for the symbals il walk ya thru it...sorta! 
   i find it awkward to try and remember the key as people have 
       different symbals so it can get confusin!!  i use odd ones a bit!

e|------------------------------------------------|
B|------------------------------------------------|
G|------------------------------------------------|  S
D|-00000000S--0-0-00-00--X3--11111111S--1-1-11-11-|  T abrupt stop!! 
A|-00000000T--0-0-00-00------11111111T--1-1-11-11-|  P  i.e. lightly press
D|-00000000P--0-0-00-00------11111111P--1-1-11-11-|    frets with palm!
   ........   . . .. ..      ........   . . .. ..
e|------------------------------------------------|
B|------------------------------------------------|
G|------------------------------------------------|
D|-00000000~~--0-0-00-00-X3--11111111~~-1-1-11-11-|  ~~ keep palm-mute
A|-00000000~~--0-0-00-00-----11111111~~-1-1-11-11-|     but lighten it and
D|-00000000~~--0-0-00-00-----11111111~~-1-1-11-11-|     sustain note!!
   ........    . . .. ..     ........   . . .. .. 
e|------------------------------------------------|
B|------------------------------------------------|    REPEAT LINE
G|------------------------------------------------|
D|-00000000~~--0-0-00-00-X3--11111111~~-1-1-11-11-|  ~~ release palm-mute
A|-00000000~~--0-0-00-00-----11111111~~-1-1-11-11-|     for one note and
D|-00000000~~--0-0-00-00-----11111111~~-1-1-11-11-|     sustain note!!
   .......     . . .. ..     .......    . . .. ..
e|----------------------------------------------------------|
B|----------------------------------------------------------|
G|----------------------------------------------------------|
D|------------7------------(X2)------------7-----------(X2)-| REPEAT LINE
A|-7--8--7h8------8---7h8-------5--8--7h8------8---7h8------|
D|-77---7---7---7---7-----------55---5---5---5---5----------|
    .   .   .   .   .            .   .   .   .   .
e|----------------------------------------------------------|
B|----------------------------------------------------------|
G|------------7---------------------------7-----------------|
D|----8--7h8------8---7h8---------8--7h8------8---7h8-------|
A|-7----------------------(X2)-5----------------------(X2)--|
D|-77---7---7---7---7----------55---5---5---5---5-----------|
    .   .   .   .   .           .   .   .   .   .
e|----------------------|
B|----------------------|
G|------------------9*--|   * pinch harmonic...i dont know the correct note
D|-2-----4----5---------|                      but i hav a note which 
A|-2-x12-4-x3-5-x12-----|                      sounds good and right!!
D|-2-----4----5---------|

e|-----------------------------------------------------|
B|-----------------------------------------------------|
G|--------------------------------------------------9*-| ^^ double bend..
D|-00-0-0-00-0-0-0-7^^----------00-0-0-00-0-0-0--------|  bend up and down
A|-00-0-0-00-0-0-0-----9^^-7^^--00-0-0-00-0-0-0--------|  twice quickly!!
D|-00-0-0-00-0-0-0--------------00-0-0-00-0-0-0-2356---|
   .. . . .. . . .              .. . . .. . . . ....
e|----------------------|
B|----------------------|
G|------------------9*--|   * pinch harmonic...instead of the 9th fret on 
D|-2-----4----5---------|                      the third string u can keep 
A|-2-x12-4-x3-5-x12-----|                      the same sound with the 5th
D|-2-----4----5---------|                      fret 2nd string..for ease! 

e|--------------------------------------------------|
B|--------------------------------------------------|
G|--------------------------------------------------|  
D|-00-0-0-00-0-0-0-7^^----------00-0-0-00-0-0-0-----| ^ bend upwards slowly 
A|-00-0-0-00-0-0-0-----9^^-7^^--00-0-0-00-0-0-0-----|   ..listen to song!!
D|-00-0-0-00-0-0-0--------------00-0-0-00-0-0-0-3^--|
   .. . . .. . . .              .. . . .. . . . 

e|----------------------------|--1st end---|-2nd end-|  X2
B|----------------------------|------------|---------|
G|-12-11-9--------------------|-12----11---|--12-14--| repeat 1st part but
D|---------12-11-9-------(X2)-|----10----8-|---------| change the ending as
A|-----------------12-10------|------------|---------| shown!!
D|----------------------------|------------|---------|

e|-------------|
B|-------------|
G|-------------| this part is not neccesary 'cos it
D|-0S-0S-0S-0S-| is played by the backin guitar for
A|-0T-0T-0T-0T-| the part above but it still sounds 
D|-0P-0P-0P-0P-|  good if played!

e|----------------------|------------------------------------------------|
B|----------------------|------------------------------------------------|
G|----------------------|------------------------------------------------|
D|-00000000S-0-0-00-00S-|-00000000~~-0-0-00-00-X3--11111111~~-1-1-11-11--|
A|-00000000T-0-0-00-00T-|-00000000~~-0-0-00-00-----11111111~~-1-1-11-11--|
D|-00000000P-0-0-00-00P-|-00000000~~-0-0-00-00-----11111111~~-1-1-11-11--|
   ........  . . .. ..    ........   . . .. ..     ........   . . .. ..
e|----------------------------------------------------------|
B|----------------------------------------------------------|
G|----------------------------------------------------------|
D|------------7------------(X2)------------7-----------(X2)-| REPEAT LINE
A|-7--8--7h8------8---7h8-------5--8--7h8------8---7h8------|
D|-77---7---7---7---7-----------55---5---5---5---5----------|
    .   .   .   .   .            .   .   .   .   .
e|--------------------|
B|--------------------|
G|--------------------|
D|-2-----4----5-------|   phew...half-way there (ish)
A|-2-x12-4-x3-5-x12---|
D|-2-----4----5-------|
[ Tab from: http://www.guitaretab.com/s/silent-civilian/146864.html ]
e|-----------------------------------------------------|
B|-----------------------------------------------------|
G|--------------------------------------------------9*-| * pinch harmonic
D|-00-0-0-00-0-0-0-7^^----------00-0-0-00-0-0-0--------| (not correct but..)
A|-00-0-0-00-0-0-0-----9^^-7^^--00-0-0-00-0-0-0--------| 
D|-00-0-0-00-0-0-0--------------00-0-0-00-0-0-0-2356---|
   .. . . .. . . .              .. . . .. . . . ....
e|--------------------|
B|--------------------|
G|--------------------|
D|-2-----4----5-------|   
A|-2-x12-4-x3-5-x12---|
D|-2-----4----5-------|

e|--------------------------------------------------|
B|--------------------------------------------------|
G|--------------------------------------------------|  
D|-00-0-0-00-0-0-0-7^^----------00-0-0-00-0-0-0-----| ^ bend upwards slowly 
A|-00-0-0-00-0-0-0-----9^^-7^^--00-0-0-00-0-0-0-----|   ..listen to song!!
D|-00-0-0-00-0-0-0--------------00-0-0-00-0-0-0-3^--|
   .. . . .. . . .              .. . . .. . . . 
e|----------------------------|--1st end---|-2nd end-|  X2
B|----------------------------|------------|---------|
G|-12-11-9--------------------|-12----11---|--12-14--| repeat 1st part but
D|---------12-11-9-------(X2)-|----10----8-|---------| change the ending as
A|-----------------12-10------|------------|---------| shown!!
D|----------------------------|------------|---------|

e|-------------|
B|-------------|
G|-------------| NOT IMPORTANT PART!!  in fact its probably
D|-0S-0S-0S-0S-|  easier missin it out this time so that u can 
A|-0T-0T-0T-0T-|    prepare for the next part which is only the 
D|-0P-0P-0P-0P-|      backing for the solo but is still hardish!

e|-------------------------------------------------------------|-------|
B|-------------------------------------------------------------|       |
G|------------9*-----------------------------------------------|       | 
D|-------------------------------------------------------------| B F S |
A|----8---7---------8---7---8----10---8---10~----10---8---10---| A O O |
D|-77---7---7----77---7---7---88----8---8-----88----8---8------| C R L | 
   ..   .   .    ..   .   .   ..    .   .     ..    .   .        K   O | 
e|-------------------------------------------------------------| I     |
B|-------------------------------------------------------------| N     |
G|-------------------------------------------------------------| G     |
D|----10---8---7~----10---8---7--------------------------------|PLAY 4X|
A|---------------------------------8---7---8----10---8--10-----|FRM TOP|
D|-77----7---7----77----7---7---77---7---7---88----8---8-------|-------|
   ..    .   .    ..    .   .   ..   .   .   ..    .   .
e|------------------------------------------------|--------------------|
B|------------------------------------------------|  REPEAT LINE!      |
G|------------------------------------------------|     t = trememlo   |
D|------------------------------------10t8t7t-10t8t7t------------------|
A|-78t7t8t-8t7t8t-810t8t10t-10t8t10t-7----------------78t7t8t-810t8t10t|
D|-7--------------8------------------7----------------7-------8--------|

e|-------------------------------------------------------------|
B|-------------------------------------------------------------|       
G|------------9*-----------------------------------------------|       
D|-------------------------------------------------------------|
A|----8---7---------8---7---8----10---8---10~----10---8---10---| 
D|-77---7---7----77---7---7---88----8---8-----88----8---8------|  
   ..   .   .    ..   .   .   ..    .   .     ..    .   .         
e|-------------------------------------------------------------| 
B|-------------------------------------------------------------| 
G|-------------------------------------------------------------| 
D|----10---8---7~----10---8---7--------------------------------|
A|---------------------------------8---7---8----10---8--10-----|
D|-77----7---7----77----7---7---77---7---7---88----8---8-------|
   ..    .   .    ..    .   .   ..   .   .   ..    .   .
e|----------------------------------------------------------| (Slide down
B|----------------------------------------------------------|  b4 this part)
G|----------------------------------------------------------|
D|------------7------------(X2)------------7-----------(X2)-| REPEAT LINE
A|-7--8--7h8------8---7h8-------5--8--7h8------8---7h8------|
D|-77---7---7---7---7-----------55---5---5---5---5----------|
    .   .   .   .   .            .   .   .   .   .
e|--------------------------------------------------|
B|--------------------------------------------------|
G|--------------------------------------------------|  
D|-00-0-0-00-0-0-0-7^^----------00-0-0-00-0-0-0-----| ^ bend upwards slowly 
A|-00-0-0-00-0-0-0-----9^^-7^^--00-0-0-00-0-0-0-----|   ..listen to song!!
D|-00-0-0-00-0-0-0--------------00-0-0-00-0-0-0-3^--|
   .. . . .. . . .              .. . . .. . . .
e|----------------------------|--1st end---|-2nd end-|  X2
B|----------------------------|------------|---------|
G|-12-11-9--------------------|-12----11---|--12-14--| repeat 1st part but
D|---------12-11-9-------(X2)-|----10----8-|---------| change the ending as
A|-----------------12-10------|------------|---------| shown!!
D|----------------------------|------------|---------|

e|-------------|
B|-------------|
G|-------------| this part is not neccesary 'cos it
D|-0S-0S-0S-0S-| is played by the backin guitar for
A|-0T-0T-0T-0T-| the part above but it still sounds 
D|-0P-0P-0P-0P-|  good if played!

e|-----------------------------------------------------|
B|-----------------------------------------------------|
G|-----------------------------------------------------|  REPEAT LINE
D|-2----4----1----0-------2----4----1----0S-0S-0S-0S---|
A|-2-x8-4-x8-1-x8-0-x8----2-x8-4-x8-1-x8-0T-0T-0T-0T---|
D|-2----4----1----0-------2----4----1----0P-0P-0P-0P---|

e|------------------------------------------------|
B|------------------------------------------------|   
G|------------------------------------------------|
D|-00000000~~--0-0-00-00-X3--11111111~~-1-1-11-11-|  ~~ release palm-mute
A|-00000000~~--0-0-00-00-----11111111~~-1-1-11-11-|     for one note and
D|-00000000~~--0-0-00-00-----11111111~~-1-1-11-11-|     sustain note!!
   .......     . . .. ..     .......    . . .. ..
e|------------------------------------------------|
B|------------------------------------------------|
G|------------------------------------------------|  S
D|-00000000S--0-0-00-00--X3--11111111S--1-1-11-11-|  T abrupt stop!! 
A|-00000000T--0-0-00-00------11111111T--1-1-11-11-|  P  i.e. lightly press
D|-00000000P--0-0-00-00------11111111P--1-1-11-11-|    frets with palm!
   ........   . . .. ..      ........   . . .. ..
e|--------------------|
B|--------------------|
G|--------------------|
D|-00000000~~--5/0----|   THE END.....FINALLY!!
A|-00000000~~--5/0----|
D|-00000000~~--5/0----|
   .......
Related for Divided tab