Guitaretab - guitar tabs
Song name
# A B C D E F G H I J K L M N O P Q R S T U V W X Y Z

Silent Civilian - Bitter Pill tab

----------------------------------------------------------------------------
			Bitter pill - silent civilian
----------------------------------------------------------------------------

Tabbed by:  sean crow
Email:  die_for_nothing_323@hotmail.com         PLEASE COMMENT AND RATE!!

Tuning: DADGBe      
                    One more silent civilian tab by moi! I doubt there 
(real song CGCFAd)     will be many more soon thought cos the rest are
                         harder than the others!!
[ Tab from: http://www.guitaretab.com/s/silent-civilian/146921.html ]
e|-----------------------------------------------|
B|-----------------------------------------------|  
G|--------------------7-10----------------10-9---|
D|-/12\--0~002~223~33-x--x---0~002~223~33--x-x---|   X2
A|-/12\--0~002~223~33-5--8---0~002~223~33--8-7---|
D|-/12\--0~002~223~33--------0~002~223~33--------|
           ..  ..  ..          ..  ..  ..
e|-------------------------------------------|-------------------------|
B|-------------------------------------------|-------------------------|
G|-------------------------------------------|-------------------------|
D|-0111-0111-0333-0333-00000000000000000-----|-0111-0111-0333-0333-0~~-|
A|-0111-0111-0333-0333-00000000000000000-(x3)|-0111-0111-0333-0333-0~~-|
D|-0111-0111-0333-0333-00000000000000000-----|-0111-0111-0333-0333-0~~-|
                       .................
e|-------------------------------------|
B|-------------------------------------|
G|---------------------------------7-7-|
D|-99------777-101010-99------55---x-x-|  X3
A|-99-0000-777-101010-99-0000-66-0-5-5-|
D|-99-0000-777-101010-99-0000----0-----|
      ....   .      .    ....
e|---------------------------------------|
B|---------------------------------------|
G|---------------------------------------|
D|-99------777-101010-99------7-5--------|
A|-99-0000-777-101010-99-0000-----8-7-5--|
D|-99-0000-777-101010-99-0000------------|
      ....   .      .    ....
e|-----------------------------------------|
B|-----------------------------------------|  
G|--------------7-10----------------10-9---|
D|-0~002~223~33-x--x---0~002~223~33--x-x---|   X2
A|-0~002~223~33-5--8---0~002~223~33--8-7---|
D|-0~002~223~33--------0~002~223~33--------|
     ..  ..  ..          ..  ..  ..
e|-------------------------------------------|-------------------------|
B|-------------------------------------------|-------------------------|
G|-------------------------------------------|-------------------------|
D|-0111-0111-0333-0333-00000000000000000-----|-0111-0111-0333-0333-0~~-|
A|-0111-0111-0333-0333-00000000000000000-(x3)|-0111-0111-0333-0333-0~~-|
D|-0111-0111-0333-0333-00000000000000000-----|-0111-0111-0333-0333-0~~-|
                       .................
e|-------------------------------------|
B|-------------------------------------|
G|---------------------------------7-7-|
D|-99------777-101010-99------55---x-x-|  X3
A|-99-0000-777-101010-99-0000-66-0-5-5-|
D|-99-0000-777-101010-99-0000----0-----|
      ....   .      .    ....
e|---------------------------------------|
B|---------------------------------------|
G|---------------------------------------|
D|-99------777-101010-99------7-5--------|
A|-99-0000-777-101010-99-0000-----8-7-5--|
D|-99-0000-777-101010-99-0000------------|
      ....   .      .    ....
e|-----------------------------------------|
B|-----------------------------------------|  
G|--------------7-10----------------10-9---|
D|-0~002~223~33-x--x---0~002~223~33--x-x---|   X2
A|-0~002~223~33-5--8---0~002~223~33--8-7---|
D|-0~002~223~33--------0~002~223~33--------|
     ..  ..  ..          ..  ..  ..

                !!!!!!BACKING FOR SOLO STARTS!!!!!!!

e|-------------------------------------------------------------------|
B|-------------------------------------------------------------------|
G|-------------------------------------------------------------------|
D|-0000000000000000111111111111111133333333333333332222222222--------|
A|-0000000000000000111111111111111133333333333333332222222222-222222-|
D|-0000000000000000111111111111111133333333333333332222222222-222222-|
   ..........................................................
e|-------------------------------------------------------------------|
B|-------------------------------------------------------------------|
G|-------------------------------------------------------------------|
D|-0000000000000000111111111111111133333333333333332222222222222222--|
A|-0000000000000000111111111111111133333333333333332222222222222222--|
D|-0000000000000000111111111111111133333333333333332222222222222222--|
   ................................................................
e|--------------------|
B|--------------------|  
G|--------------7-10--|
D|-0~002~223~33-x--x--|   X4
A|-0~002~223~33-5--8--|
D|-0~002~223~33-------|
     ..  ..  ..          
e|-----------------------------------------|
B|-----------------------------------------|  
G|--------------7-10----------------10-9---|
D|-0~002~223~33-x--x---0~002~223~33--x-x---|   X2  
A|-0~002~223~33-5--8---0~002~223~33--8-7---|
D|-0~002~223~33--------0~002~223~33--------|
     ..  ..  ..          ..  ..  ..

                 !!!!!!BACKING FOR SOLO ENDS!!!!!!

e|-----------------------------------------|
B|-----------------------------------------|  
G|--------------7-10----------------10-9---|
D|-0~002~223~33-x--x---0~002~223~33--x-x---|   X4
A|-0~002~223~33-5--8---0~002~223~33--8-7---|
D|-0~002~223~33--------0~002~223~33--------|
     ..  ..  ..          ..  ..  ..
e|--------|
B|--------|
G|--------|
D|-2~~~~~~|     THE END!!!
A|-2~~~~~~|                  AGAIN, if anyone can do the solo it would be
D|-2~~~~~~|                    extremely appreciated!!  rate and comment!!
Related for Bitter Pill tab