Song name
# A B C D E F G H I J K L M N O P Q R S T U V W X Y Z

Silent Civilian - Live Again tab

----------------------------------------------------------------------------
			     live again intro - silent civilian
----------------------------------------------------------------------------
Tabbed by: sean crow
Email: die_for_nothing_323@hotmail.com
AIM: black0range555
Tuning:  CGCFAd           This is only the acoustic intro...i cheked out the
                          tab by "brythepie" and i couldnt get the
                          intro sounding right (maybe just me tho)
                          and i play it a way which im certain works!
RATE AND COMMENT!!

d|-----------------------------------6---6---6--------------------|
A|----------------10----5---5---5---------------3-2-2-3-3h5p3-2-3-|
F|---10---10---10-10----------------------------3-2---------------| play 3x
C|-0----0----0-----0---------------5---5---5----3-2---------------|
G|--------------------3---3---3-----------------0-0---------------|
C|----------------------------------------------------------------|

if u dont think its right send me comments and corrections but im 99% sure it works (i 
i may have miss one chord straight after the first tho)
Tap to rate this tab
 
# A B C D E F G H I J K L M N O P Q R S T U V W X Y Z