Song name
# A B C D E F G H I J K L M N O P Q R S T U V W X Y Z

Silent Civilian - Rebirth Of The Temple tab

#----------------------------------PLEASE NOTE---------------------------------#
#This file is the author's own work and represents their interpretation of the #
#song. You may only use this file for private study, scholarship, or research. #
#------------------------------------------------------------------------------#








 

 

Gtr I (C G C F A D) - 'Untitled'
Gtr II (C G C F A D) - 'Untitled'
Gtr III (C G C F A D) - 'Untitled'


  Q=200
 4/4
  Gtr I
  E   +E  E   E E E E E E   E   E E E E E E E
|---|---------------------|-------------------|
|---|---------------------|-------------------|
|---|---------------------|-------------------|
|-0-|-(0)-----------------|-----------------8-|
|-0-|-(0)-----8---7---8---|-7-----8---7h8---8-|
|-0-|-(0)-0-----0---0---0-|-----0---0-----0-8-|
|
| Gtr II
| E   +E  H..               H..             E
|---|---------------------|-------------------|
|---|---------------------|-------------------|
|---|---------------------|-------------------|
|-0-|-(0)-----------------|-----------------8-|
|-0-|-(0)-----------------|-----------------8-|
|-0-|-(0)-----------------|-----------------8-|


  +E  E   E E E E E E   E E E E E E E E
|---------------------|-----------------|-|
|---------------------|-----------------|-|
|---------------------|-----------------|-|
|-(8)-----------------|---------------5-|-|
|-(8)-----8---7---8---|-7---8---7h8---5-|-|
|-(8)-0-----0---0---0-|---0---0-----0-5-|-|
|
| +E  H..               H       E E E E
|---------------------|-----------------|-|
|---------------------|-----------------|-|
|---------------------|-----------------|-|
|-(8)-----------------|---------7-8---5-|-|
|-(8)-----------------|---------7-8---5-|-|
|-(8)-----------------|---------7-8-0-5-|-|


  +E  E   E E E E E E   E   E E E E E E E
|---------------------|-------------------|
|---------------------|-------------------|
|---------------------|-------------------|
|-(5)-----------------|-----------------7-|
|-(5)-----8---7---8---|-7-----8---7h8---7-|
|-(5)-0-----0---0---0-|-----0---0-----0-7-|
|
| +E  H..               H..             E
|---------------------|-------------------|
|---------------------|-------------------|
|---------------------|-------------------|
|-(5)-----------------|-----------------7-|
|-(5)-----------------|-----------------7-|
|-(5)-----------------|-----------------7-|


  +E   E  E E E E E E   +E  E E  E  +E   E  E E
|---------------------|-------------------------|
|---------------------|-------------------------|
|---------------------|-------------------------|
|-(7)---------------8-|-(8)-8-8-10-(10)-10-10-0-|
|-(7)-----8---7h8---8-|-(8)-8-8-10-(10)-10-10-0-|
|-(7)--0----0-----0-8-|-(8)-8-8-10-(10)-10-10-0-|
|
| +E  +H.           E   +Q.      H            E
|---------------------|-------------------------|
|---------------------|-------------------------|
|---------------------|-------------------------|
|-(7)-(7)-----------8-|-(8)-----10------------0-|
|-(7)-(7)-----------8-|-(8)-----10------------0-|
|-(7)-(7)-----------8-|-(8)-----10------------0-|


  Gtrs I, II
  +E  E E E E E E E   E E E E E E E E   +E  E E E E E E E   E   E E E E E E E
|-------------------|-----------------|-------------------|-------------------|
|-------------------|-----------------|-------------------|-------------------|
|-------------------|-----------------|-------------------|-------------------|
|-(0)---------------|---------------8-|-(8)---------------|-----------------5-|
|-(0)---8---7---8---|-7---8---7h8---8-|-(8)---8---7---8---|-7-----8---7h8---5-|
|-(0)-0---0---0---0-|---0---0-----0-8-|-(8)-0---0---0---0-|-----0---0-----0-5-|
|
| Gtr III
|  W                  W                  W                  H..           a E
|-------------------|-----------------|-------------------|-------------------|
|-------------------|-----------------|-------------------|-------------------|
|-------------------|-----------------|-------------------|---------------5S7-|
|-------------------|-----------------|-------------------|-------------------|
|-------------------|-----------------|-------------------|-------------------|
|-------------------|-----------------|-------------------|-------------------|


  +E  E E E E E E E    E E E E  E  E E  E
|-------------------|---------------------|
|-------------------|---------------------|
|-------------------|---------------------|
|-(5)---------------|-------------------7-|
|-(5)---8---7---8---|--7---8----7h=8----7-|
|-(5)-0---0---0---0-|----0---0-------0--7-|
|
| +H        H          H        E  E E  E
|-------------------|---------------------|
|-------------------|---------------------|
|-(7)-------9-------|-10-------12-10-9-10-|
|-------------------|---------------------|
|-------------------|---------------------|
|-------------------|---------------------|


   +E  E E E  E E  E  E    +E   E E  E  +E   E  E  E
|-----------------------|----------------------------|
|-----------------------|----------------------------|
|-----------------------|----------------------------|
|--(7)----------------8-|--(8)--8-8-10-(10)-10-10--0-|
|--(7)---8----7h8-----8-|--(8)--8-8-10-(10)-10-10--0-|
|--(7)-0---0-------0--8-|--(8)--8-8-10-(10)-10-10--0-|
|
|          |-3--|
|  +H      E  E E  E  E    +H..                    E
|-----------------------|----------------------------|
|-----------------------|-------------------------10-|
|-(10)-----9h10p9-------|----------------------------|
|-----------------12-10-|-(10)-----------------------|
|-----------------------|----------------------------|
|-----------------------|----------------------------|


   +E   E  E        E  E  E  E E    E        E  E  E  E  E  E E
|--------------------------------|------------------------------|
|--------------------------------|------------------------------|
|--------------------------------|------------------------------|
|--(0)---------------------------|----------------------------8-|
|--(0)-----8-----------7-----8---|--7-----------8-----7h=8----8-|
|--(0)--0-----------0-----0----0-|-----------0-----0--------0-8-|
|
|  +E   E  S  S  E  E  E  E  E      E  S  S  E  E  E  E  E  E
|--------------------------------|----------------------10-12---|
|-(10)-11-10h11p10----------10---|-11-10h11p10----10-11---------|
|------------------12-10-12------|-------------12---------------|
|--------------------------------|------------------------------|
|--------------------------------|------------------------------|
|--------------------------------|------------------------------|


   +E  E  E E  E  E  E  E     E   E E E E E E   E
|-------------------------|-----------------------|
|-------------------------|-----------------------|
|-------------------------|-----------------------|
|--(8)--------------------|---------------------5-|
|--(8)----8----7-----8----|---7-----8---7h8-----5-|
|--(8)-0----0-----0-----0-|-------0---0-----0---5-|
|
|   Q     Q    E  E  E  E    +H..               E
|-/13----13---13-12-10-12-|-(12)--------------/18-|
|-------------------------|-----------------------|
|-------------------------|-----------------------|
|-------------------------|-----------------------|
|-------------------------|-----------------------|
|-------------------------|-----------------------|


   +E   E  E  E  E  E  E  E    E  E  E   E   E E  E E
|---------------------------|-------------------------|
|---------------------------|-------------------------|
|---------------------------|-------------------------|
|--(5)----------------------|-----------------------7-|
|--(5)-----8-----7-----8----|--7-----8-------7h8----7-|
|--(5)--0-----0-----0-----0-|-----0------0--------0-7-|
|
|  +E   E  E  E  E  E  E  E    E  E  E   Q   Q    E
|-(18)-17-15----17-15-------|-15----------------------|
|------------18-------18-17-|----18-17-/18--17--------|
|---------------------------|--------------------12---|
|---------------------------|-------------------------|
|---------------------------|-------------------------|
|---------------------------|-------------------------|


   +E   E  E  E E  E E  E    +E   E  E  E  +E   E  E  E
|-------------------------|------------------------------|
|-------------------------|------------------------------|
|-------------------------|------------------------------|
|--(7)------------------8-|--(8)--8--8-10-(10)-10-10--0--|
|--(7)-----8----7h=8----8-|--(8)--8--8-10-(10)-10-10--0--|
|--(7)--0-----0------0--8-|--(8)--8--8-10-(10)-10-10--0--|
|
|  +E   E  E  Q    Q    E    +E   E  E  Q       Q     E
|-------------------------|------------------------------|
|-------------------------|------------------------------|
|-(12)-14-14-15---14---12-|-(12)-14-14-15------17----19--|
|-------------------------|------------------------------|
|-------------------------|------------------------------|
|-------------------------|------------------------------|


   +E  E E E E E E E     E  H..
|--------------------|----------------|----|
|--------------------|----------------|----|
|--------------------|----------------|----|
|--(0)---------------|----------------|----|
|--(0)-0-0-0-0-0-0-0-|---0------------|----|
|--(0)-0-0-0-0-0-0-0-|---0------------|----|
|
|  +W                   +W
|--------------------|----------------|----|
|--------------------|----------------|----|
|-(19)---------------|-(19)-----------|----|
|--------------------|----------------|----|
|--------------------|----------------|----|
|--------------------|----------------|----|


    $
    Gtrs I, II
    Q  E E E E E E   E E E E E E E E   Q.   Q.   Q    +E  E E E E E E E   3x
||-----------------|-----------------|--------------|---------------------||
||o----------------|-----------------|--------------|--------------------o||
||-----------------|-----------------|--------------|---------------------||
||--0--0-0-0-0-0-0-|-0-0-0-0-0-0-0-0-|-1----4----3--|-(3)-3-3-3-3-3-3-3---||
||o-0--0-0-0-0-0-0-|-0-0-0-0-0-0-0-0-|-1----4----3--|-(3)-3-3-3-3-3-3-3--o||
||--0--0-0-0-0-0-0-|-0-0-0-0-0-0-0-0-|-1----4----3--|-(3)-3-3-3-3-3-3-3---||


                                                     PM----------|
  Q  E E E E E E   E E E E E E E E   E Q  E Q  E E   E E E E E E E E
|----------------|-----------------|---------------|-----------------|
|----------------|-----------------|---------------|-----------------|
|----------------|-----------------|---------------|-----------------|
|-0--0-0-0-0-0-0-|-0-0-0-0-0-0-0-0-|-1----4----3---|---------------0-|
|-0--0-0-0-0-0-0-|-0-0-0-0-0-0-0-0-|-1----4----3---|-0-0-0-0-0-0-0-0-|
|-0--0-0-0-0-0-0-|-0-0-0-0-0-0-0-0-|-1----4----3---|-0-0-0-0-0-0-0-0-|


  +E  E E E E E E E   E E E E E E E E   +E  E E E E E E  E    +W
|-------------------|-----------------|---------------------|-----------|-|
|-------------------|-----------------|---------------------|-----------|-|
|-------------------|-----------------|---------------------|-----------|-|
|-(0)---------------|---------------8-|-(8)-----------------|-----------|-|
|-(0)---8---7---8---|-7---8---7h8---8-|-(8)---8---7h8---[8]-|-(8)-------|-|
|-(0)-0---0---0---0-|---0---0-----0-8-|-(8)-0---0-----0-----|-----------|-|


    E E E E E E E E   E E E E E E E E
||------------------|-----------------|
||o-----------------|-----------------|
||------------------|-----------------|
||--8-8-8-8-8-8-8-8-|-3-3-3-3-3-3-3-3-|
||o-8-8-8-8-8-8-8-8-|-3-3-3-3-3-3-3-3-|
||--8-8-8-8-8-8-8-8-|-3-3-3-3-3-3-3-3-|


  E E E E E E E  E    E  E  E E E  E  E E
|------------------|------------------------||
|------------------|-----------------------o||
|---------------12-|-12-10-10-9-9-10-10-----||
|-0-0-0-0-0-0-0--x-|--x--x--x-x-x--x--x-8---||
|-0-0-0-0-0-0-0-10-|-10--8--8-7-7--8--8-8--o||
|-0-0-0-0-0-0-0----|--------------------8---||


                                        PM|
  E E E E E E E E   E E E E E E E E   E E E +E  E Q   E    E  E  E E E  E  E E
|-----------------|-----------------|-------------------|----------------------|
|-----------------|-----------------|-------------------|----------------------|
|-----------------|-----------------|----------------12-|-12-10-10-9-9-10-10---|
|-8-8-8-8-8-8-8-8-|-3-3-3-3-3-3-3-3-|-0---------0-0---x-|--x--x--x-x-x--x--x-8-|
|-8-8-8-8-8-8-8-8-|-3-3-3-3-3-3-3-3-|-0-0-0-(0)-0-0--10-|-10--8--8-7-7--8--8-8-|
|-8-8-8-8-8-8-8-8-|-3-3-3-3-3-3-3-3-|-0-0-0-(0)-0-0-----|--------------------8-|


                           To Coda                    D.S. al Coda
                                         PM------------|
  E E E E E E E E   E E E E E E E E   Q  E E E E E E   E H..
|-----------------|-----------------|----------------|-------------|
|-----------------|-----------------|----------------|-------------|
|-----------------|-----------------|----------------|-------------|
|-8-8-8-8-8-8-8-3-|-3-3-3-3-3-3-3-3-|-0--------------|-------------|
|-8-8-8-8-8-8-8-3-|-3-3-3-3-3-3-3-3-|-0--0-0-0-0-0-0-|-0-----------|
|-8-8-8-8-8-8-8-3-|-3-3-3-3-3-3-3-3-|-0--0-0-0-0-0-0-|-0-----------|


    &
    S S S S E E        4x
||---------------------||----|
||o-------------------o||----|
||---------------------||----|
||---------------------||----|
||o-0-0-0-0-0---------o||----|
||--0-0-0-0-0----------||----|


       PM------|       PM--|
    Q  q  q  E e   +e  E E E H      3x Q.     Q.  Q.  Q.  E  E Q
||---------------|------------------||------------------------------|
||o--------------|-----------------o||------------------------------|
||---------------|------------------||------------------------------|
||--0------------|-----------8------||-------10---7---8---7---------|
||o-0--0--0--0-0-|-(0)-0-0-0-8-----o||-8--------------------10-8----|
||--0--0--0--0-0-|-(0)-0-0-0-8\-----||------------------------------|




--------------------------------------------------------------------------------


Duration Legend
---------------
W - whole; H - half; Q - quarter; E - 8th; S - 16th; T - 32nd; X - 64th; a - acciaccatura
+ - note tied to previous; . - note dotted; .. - note double dotted
Uncapitalized letters represent notes that are staccato (1/2 duration)
Irregular groupings are notated above the duration line
Duration letters will always appear directly above the note/fret number it represents the
duration for.  Duration letters with no fret number below them represent rests.  Multi-
bar rests are notated in the form Wxn, where n is the number of bars to rest for.  Low
melody durations appear below the staff

Tablature Legend
----------------
 h   - hammer-on
 p   - pull-off
 b   - bend
 pb  - pre-bend
 r   - bend release (if no number after the r, then release immediately)
 /\  - slide into or out of (from/to "nowhere")
 s   - legato slide
 S   - shift slide
 - natural harmonic
[n]  - artificial harmonic
n(n) - tapped harmonic
 ~   - vibrato
 tr  - trill
 T   - tap
 TP  - trem. picking
 PM  - palm muting
\n/  - tremolo bar dip; n = amount to dip
 \n  - tremolo bar down
 n/  - tremolo bar up
/n\  - tremolo bar inverted dip
 =   - hold bend; also acts as connecting device for hammers/pulls
 <> - volume swell (louder/softer)
 x   - on rhythm slash represents muted slash
 o   - on rhythm slash represents single note slash

Misc Legend
-----------
 |  - bar
||  - double bar
||o - repeat start
o|| - repeat end
*|  - double bar (ending)
 :  - bar (freetime)
 $  - Segno
 &  - Coda
Tempo markers -  = BPM(8/16=s8/s16), where s8 = swing 8ths, s16 = swing 16ths



--------------------------------------------------------------------------------

** Generated using Power Tab Editor by Brad Larsen: The Official Power Tab Web Site
Tap to rate this tab
# A B C D E F G H I J K L M N O P Q R S T U V W X Y Z