Song name
# A B C D E F G H I J K L M N O P Q R S T U V W X Y Z

Silent Civilian - First Amendment tab

Intro 
          
D|----------------------------------------------------|
A|----------------------------------------------------|
F|-----|---repeat-twice-------------repeat-twice------|
C|pick-|-0-1-4-3-6-5-0-4-3-------0-1-4-3-6-5-0-4-3----|
G|slide|-0-1-4-3-6-5-0-4-3-------0-1-4-3-6-5-0-4-3----|
C|-----|-0-1-4-3-6-5-0-4-3-------0-1-4-3-6-5-0-4-3----|
PM       . . . . . . . . .  

          verse one
D|----------------------------|            Lyrics- Uhhhh No I wont conform
A|----------------------------|                    to your fear.
F|-----repeat four times------|
C|-0-7b-0-5b-0-8b-0-7-5-7b----|
G|-0----0----0----0-----------|
C|-0----0----0----0-----------|
PM .    .    .    .
(just listen for the counting on the PM its pretty easy its just 16th notes)        

          
D|-------------------|
A|-------------------|
F|---Repeat-twice----|
C|-0-1-4-3-6-5-0-4-3-|
G|-0-1-4-3-6-5-0-4-3-|
C|-0-1-4-3-6-5-0-4-3-|
PM . . . . . . . . .

          Verse two
D|----------------------------|          Lyrics- Wageing war and death, on  
A|----------------------------|                a land, rich with opportunity.
F|-----repeat four times------|
C|-0-7b-0-5b-0-8b-0-7-5-7b----|
G|-0----0----0----0-----------|
C|-0----0----0----0-----------|
PM .    .    .    .

  
         chorus one
D|-----------------------|              Lyrics- Pain will be the price, all 
A|-----------------------|                      the ones we kill in vain.
F|--repeat-four-times----|
C|-0----1---4------------|
G|-0----1---4----5-5--5*-|
C|-0----1---4------------|
PM               . . 

D|-----------------|
A|-----------------|
F|-----------------|
C|-0----0-0-0-0-0--|
G|-0----0-0-0-0-0--|
C|-0----0-0-0-0-0--|
PM .    . . . . .
   ^
  x12 or something (stumming is a little difficult to type)

         verse three
D|----------------------------|        Lyrics- Election by fraud, and by lies
A|----------------------------|                this is not democracy.   
F|-----repeat four times------|
C|-0-7b-0-5b-0-8b-0-7-5-7b----|
G|-0----0----0----0-----------|
C|-0----0----0----0-----------|
PM .    .    .    .

         chorus two
D|-----------------------|        Lyrics-  Pain will be the price, all the 
A|-----------------------|                 ones we kill in vain
F|--repeat-four-times----|
C|-0----1---4------------|
G|-0----1---4----5-5--5*-|
C|-0----1---4------------|
PM               . . 

D|------------------repeat-three-times--------------------------|
A|--------------------------------------------------------------|
F|----10--9-10-----10--9-10-----12--10--9-----7--5--7-----------|
C|-0---x--x--x--0---x--x--x--8---x---x--x--5--x--x--x-----------|
G|-0---8--7--8--0---8--7--8--8--10---8--7--5--5--3--5-----------|
C|-0------------0------------8-------------5--------------------|
PM .            .            .             .
   ^            ^            ^             ^
  x12          x12          x12           x12

                    
     //////////////SORRY NO SOLO\\\\\\\\\\\\\\\\\
 
                  Background guitar (guitar 2)
 NOW WITH THIS JUST DO 16TH NOTES ON THE PM TILL YOU HEAR THE OCTAVES 
D|--------------------------------------------------------------|
A|--------------------------------------------------------------|
F|----10--9-10-----10--9-10-----12--10--9-----7--5--7-----------|
C|-0---x--x--x--0---x--x--x--8---x---x--x--5--x--x--x-----------|
G|-0---8--7--8--0---8--7--8--8--10---8--7--5--5--3--5-----------|
C|-0------------0------------8-------------5--------------------|
PM .            .            .             .

          
D|-------------------|
A|-------------------|
F|----Repeat-twice---|
C|-0-1-4-3-6-5-0-4-3-|
G|-0-1-4-3-6-5-0-4-3-|
C|-0-1-4-3-6-5-0-4-3-|
PM . . . . . . . . .

D|----------------------------|        
A|----------------------------|                  
F|-----repeat-three-times-----|
C|-0-7b-0-5b-0-8b-0-7-5-7b----|
G|-0----0----0----0-----------|
C|-0----0----0----0-----------|
PM .    .    .    .

D|-----------------------|         
A|-----------------------|                
F|--repeat-four-times----|
C|-0----1---4------------|
G|-0----1---4----5-5--5*-|
C|-0----1---4------------|
PM               . . 

D|---------------------------------------------------------------------|
A|---------------------------------------------------------------------|
F|----Repeat-twice---------------------------repeat-four-times---------|
C|-0-1-4-3-6-5-0-4-3-------------------------0-1-4-3-6-5-0-4-3---0-----|
G|-0-1-4-3-6-5-0-4-3-----Repeat-twice--------0-1-4-3-6-5-0-4-3---0-----|
C|-0-1-4-3-6-5-0-4-3---0-1-4-3-6-5-0-4-3-7b--0-1-4-3-6-5-0-4-3---0-----|
PM . . . . . . . . .
Tap to rate this tab
# A B C D E F G H I J K L M N O P Q R S T U V W X Y Z