Song name
# A B C D E F G H I J K L M N O P Q R S T U V W X Y Z

Silent Civilian - Lies In The House Of Shame tab

----------------------------------------------------------------------------
         	     lies in the house of shame - silent civilian
---------------------------------------------------------------------------

Tabbed by: sean crow 
Email: die_for_nothing_323@hotmail.com
Aim: blackorange555
Tuning: DADGBe
real song: CGCFAd      The intro for this was done but i couldnt play that
                       one and get it to sound right so i did it all again!
                       This is another great song by Silent civilian!!

e|----------------------|
B|----------------------|
G|----------------------|
D|-2----2--2----2--2-3--|  
A|-2-00-2--2-00-2--2-3--|
E|-2-00-2--2-00-2--2-3--|
     ..      ..
e|---------------------------------------------|
B|---------------------------------------------|
G|----------------------------------7/9-7/8-\--|  
D|-0-----0-----2-3-2-0--0-----0-----x/x-x/x-\--|  Play
A|-0-000-0-000-2-3-2-0--0-000-0-000-5/7-5/6-\--|   x6
E|-0-000-0-000-2-3-2-0--0-000-0-000------------|
     ...   ...            ...   ...
e|----------------------------------------|
B|----------------------------------------|
G|----------------------------------------|
D|---55--------55--------88--------11-11--|  Play
A|-0-55-000000-66-000000-88-000000-11-11--|   4x
E|-0-55-000000----000000-88-000000-11-11--|
   .    ......    ......    ......
e|----------------------|
B|----------------------|
G|-8\7-------------6\5--|
D|-x\x-------------x\x--| Play   i couldnt figure out the
A|-6\5-55-55-44-44-4\3--|  4x    actual part for (55554444)
E|----------------------|        but it still sounds ok to me!!
       .. .. .. ..
e|---------------------------------------------------------|-----------|
B|---------------------------------------------------------|           | 
G|---------------------------------------------------------|           |
D|-77--------10---8---7---8---77--------10---8---7---8-----|           |
A|-77-----------------------0-77------------------------0--|           |
E|-77-777777----7---7---7---0-77-777777----7---7---7----0--|           |
      ......    .   .   .   .    ......    .   .   .    .      Play    | 
e|---------------------------------------------------------|     2x    |
B|---------------------------------------------------------|           |
G|---------------------------------------------------------|           | 
D|-00--------10---8---7---8---00--------10---8---12---10---|           |
A|-00-----------------------0-00-------------------------0-|           |
E|-00-000000----0---0---0---0-00-000000----0---0----0----0-|-----------| 
      ......    .   .   .   .    ......    .   .    .    .
e|----------------------|
B|----------------------|
G|----------------------|
D|-2----2--2----2--2-3--|  
A|-2-00-2--2-00-2--2-3--|
E|-2-00-2--2-00-2--2-3--|
     ..      ..
e|---------------------------------------------|
B|---------------------------------------------|
G|----------------------------------7/9-7/8-\--|  
D|-0-----0-----2-3-2-0--0-----0-----x/x-x/x-\--|  Play
A|-0-000-0-000-2-3-2-0--0-000-0-000-5/7-5/6-\--|   x6
E|-0-000-0-000-2-3-2-0--0-000-0-000------------|
     ...   ...            ...   ...
e|----------------------------------------|
B|----------------------------------------|
G|----------------------------------------|
D|---55--------55--------88--------11-11--|  Play
A|-0-55-000000-66-000000-88-000000-11-11--|   2x
E|-0-55-000000----000000-88-000000-11-11--|
   .    ......    ......    ......
e|----------------------|
B|----------------------|
G|-8\7-------------6\5--|
D|-x\x-------------x\x--| Play   
A|-6\5-55-55-44-44-4\3--|  4x   
E|----------------------|        
       .. .. .. ..
e|---------------------------------------------------------|-----------|
B|---------------------------------------------------------|           | 
G|---------------------------------------------------------|           |
D|-77--------10---8---7---8---77--------10---8---7---8-----|           |
A|-77-----------------------0-77------------------------0--|           |
E|-77-777777----7---7---7---0-77-777777----7---7---7----0--|           |
      ......    .   .   .   .    ......    .   .   .    .      Play    | 
e|---------------------------------------------------------|     2x    |
B|---------------------------------------------------------|           |
G|---------------------------------------------------------|           | 
D|-00--------10---8---7---8---00--------10---8---12---10---|           |
A|-00-----------------------0-00-------------------------0-|           |
E|-00-000000----0---0---0---0-00-000000----0---0----0----0-|-----------| 
      ......    .   .   .   .    ......    .   .    .    .
e|------------------------|
B|------------------------|
G|------------------------|
D|-2----2--2----2--2-3-0~~|  
A|-2-00-2--2-00-2--2-3-0~~|
E|-2-00-2--2-00-2--2-3-0~~|
     ..      ..
e|-------------------------------------------------|--------------|
B|-------------------------------------------------|              |
G|-------------------------------------------------|              |
D|-0---0---2---3---2---0---0---0---0---2---3---2---|              |
A|-0-0-0-0-2-0-3-0-2-0-0-0-0-0-0-0-0-0-2-0-3-0-2-0-|              |
E|-0-0-0-0-2-0-3-0-2-0-0-0-0-0-0-0-0-0-2-0-3-0-2-0-|              |
     .   .   .   .   .   .   .   .   .   .   .   .                |
e|------------------------------------|                           |
B|------------------------------------|    Play   not too sure    |
G|------------------------------------|      2x   how good this   |
D|-0---0---2---3---2---0---0---6-5-3--|           part is!        | 
A|-0-0-0-0-2-0-3-0-2-0-0-0-0-0-6-5-3--|                           | 
E|-0-0-0-0-2-0-3-0-2-0-0-0-0-0-6-5-3--|---------------------------|
     .   .   .   .   .   .   .
e|--------------------------------------------|
B|--------------------------------------------|
G|--------------------------------------------|
D|-33-8-7-5-3-8888888888-5555-7-5-3-2-33-888--|  Play 
A|-33-8-7-5-3-8888888888-5555-7-5-3-2-33-888--|   4x
E|-33---------8888888888-5555---------33-888--|
      . . . .                 . . . .
e|-------------|
B|-------------|
G|-------------|
D|-0-0-0-0-00--|
A|-0-0-0-0-00--|
E|-0-0-0-0-00--|

          ********** SOLO STARTS (BACKING GUITAR**********

e|----------------------------------------|
B|----------------------------------------|
G|----------------------------------------|
D|---55--------55--------88--------11-11--|  Play
A|-0-55-000000-66-000000-88-000000-11-11--|   2x
E|-0-55-000000----000000-88-000000-11-11--|
   .    ......    ......    ......
e|--------------------------------------------|
B|--------------------------------------------|
G|--------------------------------------------|
D|-33-8-7-5-3-8888888888-5555-7-5-3-2-33-888--|  Play 
A|-33-8-7-5-3-8888888888-5555-7-5-3-2-33-888--|   4x
E|-33---------8888888888-5555---------33-888--|
      . . . .                 . . . .
e|---------|
B|---------|
G|---------|
D|-0-0-0-0-|  Abrupt stops after each chord!!
A|-0-0-0-0-|
E|-0-0-0-0-|

            ********** SOLO ENDS (BACKING GUITAR)**********

e|---------------------------------------------------------|-----------|
B|---------------------------------------------------------|           | 
G|---------------------------------------------------------|           |
D|-77--------10---8---7---8---77--------10---8---7---8-----|           |
A|-77-----------------------0-77------------------------0--|           |
E|-77-777777----7---7---7---0-77-777777----7---7---7----0--|           |
      ......    .   .   .   .    ......    .   .   .    .      Play    | 
e|---------------------------------------------------------|     2x    |
B|---------------------------------------------------------|           |
G|---------------------------------------------------------|           | 
D|-00--------10---8---7---8---00--------10---8---12---10---|           |
A|-00-----------------------0-00-------------------------0-|           |
E|-00-000000----0---0---0---0-00-000000----0---0----0----0-|-----------| 
      ......    .   .   .   .    ......    .   .    .    .

e|--------------------------------------------------------|
B|--------------------------------------------------------|
G|--------------------------------------------------------|
D|-7-----7-----10---8---7---8--7-----7-----10---8---7---8-|
A|-7-777-7-777-----------------7-777-7-777----------------|
E|-7-777-7-777----7---7---7----7-777-7-777----7---7---7---|
     ...   ...    .   .   .      ...   ...    .   .   .
e|---------------------------------------|
B|---------------------------------------|
G|---------------------------------------|
D|-00-00-00-10-8-7-8-00-00-00-10-8-12-10-|
A|-00-00-00----------00-00-00------------|
E|-00-00-00----------00-00-00------------|
   .. .. ..          .. .. ..
e|---------------------------------------------------------|
B|---------------------------------------------------------|
G|---------------------------------------------------------| 
D|-77--------10---8---7---8---77--------10---8---7---8-----| 
A|-77-----------------------0-77------------------------0--| 
E|-77-777777----7---7---7---0-77-777777----7---7---7----0--| 
      ......    .   .   .   .    ......    .   .   .    . 
e|---------------------------------------------------------| 
B|---------------------------------------------------------| 
G|---------------------------------------------------------| 
D|-00--------10---8---7---8---00--------10---8---12---10---|
A|-00-----------------------0-00-------------------------0-| 
E|-00-000000----0---0---0---0-00-000000----0---0----0----0-| 
      ......    .   .   .   .    ......    .   .    .    .
e|--------------------------------------------|
B|--------------------------------------------|
G|--------------------------------------------|
D|-2----2--2----2--2-3--2----2--2----2--2-3~~~|  
A|-2-00-2--2-00-2--2-3--2-00-2--2-00-2--2-3~~~|
E|-2-00-2--2-00-2--2-3--2-00-2--2-00-2--2-3~~~|
     ..      ..           ..      ..
e|-------------------------------------------------|
B|-------------------------------------------------|
G|--------------------------------------7/9-7/8-\--|  
D|-0-------------2-3-2-0--0-------------x/x-x/x-\--|  Play
A|-0-000-000-0-0-2-3-2-0--0-000-000-0-0-5/7-5/6-\--|   x4
E|-0-000-000-0-0-2-3-2-0--0-000-000-0-0------------|
     ... ... . .            ... ... . .
e|----------------------------------------------|
B|----------------------------------------------|
G|----------------------------------------------|
D|-2----2--2----2--2-3-0~~~~~~~~~~~~~~~~~~~~~~~~|    THE END!!!
A|-2-00-2--2-00-2--2-3-0~~~~~~~~~~~~~~~~~~~~~~~~|
E|-2-00-2--2-00-2--2-3-0~~~~~~~~~~~~~~~~~~~~~~~~|  then the "choir" sings
     ..      ..                                     for 1min 45secs!!
Tap to rate this tab
# A B C D E F G H I J K L M N O P Q R S T U V W X Y Z