Song name
# A B C D E F G H I J K L M N O P Q R S T U V W X Y Z

Silent Civilian - Force Fed tab

----------------------------------------------------------------------------
			force fed - silent civilian
----------------------------------------------------------------------------

Tabbed by: sean crow
Email: die_for_nothing_323@hotmailc.om
                                            * * * * * * * * * * * *
Tuning: DADGBe  (real song CGCFAd)     **** PLEASE RATE AND COMMENT ****
                                            * * * * * * * * * * * *
           Another great song by silent civilian (im workin on "the song
                remains un-named...its a hard one tho so be patient!)

e|------------------------|---------------------------------------|
B|------------------------|---------------------------------------|
G|------------------------|-9-9-9--9-9-9-9--7-7--10-10-10-10------|
D|-0------0-0--0------0-0-|-x-x-x--x-x-x-x--x-x---x--x--x--x-(X2)-|
A|-0(x16)-0-0--0(x16)-0-0-|-7-7-7--7-7-7-7--5-5---8--8--8--8------|
D|-0------0-0--0------0-0-|---------------------------------------|
   .      . .  .      . .
e|-------------------------|-----|--------------------------|---------|  S|
B|-------------------------|-----|--------------------------|---------|P C|
G|-------------------------|-----|--------------------------|-7-7-7-7-|I R|
D|-------------------------|-0~~-|-77777777-555-888888------|-x-x-x-x-|C A|
A|---------------------(x3)|-0~~-|-77777777-555-888888-(x3)-|-5-5-5-5-|K P|
D|-77777777-555-888888-----|-0~~-|-77777777-555-888888------|---------|  E|

e|---------------------------------------------------------------------|
B|---------------------------------------------------------------------|
G|------------------------------------------------------------10-9-7-5-|
D|-5-5-555-8-8-888-7-7-777-3-3-333-5-5-555-8-8-888-7-7-7-------x-x-x-x-|
A|-5-5-555-8-8-888-7-7-777-3-3-333-5-5-555-8-8-888-7-7-7(X12)--8-7-5-3-|
D|-5-5-555-8-8-888-7-7-777-3-3-333-5-5-555-8-8-888-7-7-7---------------|

e|----------------------------------------------------------------------|
B|----------------------------------------------------------------------|
G|------------------------------------------------------------9-9-9-9-9-|
D|-5-5-555-8-8-888-7-7-777-3-3-333-5-5-555-8-8-888-7-7-7------x-x-x-x-x-|
A|-5-5-555-8-8-888-7-7-777-3-3-333-5-5-555-8-8-888-7-7-7(X12)-7-7-7-7-7-|
D|-5-5-555-8-8-888-7-7-777-3-3-333-5-5-555-8-8-888-7-7-7----------------|

e|------------------------|  S|------------------------|-----|
B|------------------------|P C|------------------------|-----|
G|------------------------|I R|------------------------|-----|
D|-/9\--------------------|C A|------------------------|-0~~-|
A|-/9\--------------------|K P|--------------------(X3)|-0~~-|
D|-/9\-7-77777-555-888888-|  E|-77777777-555-888888----|-0~~-|

e|-------------------------|---------------|   S |
B|-------------------------|---------------| P C |
G|-------------------------|------7-7-7-7--| I R |
D|-77777777-555-888888-----|-0~~--x-x-x-x--| C A |
A|-77777777-555-888888-(X2)|-0~~--5-5-5-5--| K P |
D|-77777777-555-888888-----|-0~~-----------|   E |

e|---------------------------------------------------------------------|
B|---------------------------------------------------------------------|
G|------------------------------------------------------------10-9-7-5-|
D|-5-5-555-8-8-888-7-7-777-3-3-333-5-5-555-8-8-888-7-7-7-------x-x-x-x-|
A|-5-5-555-8-8-888-7-7-777-3-3-333-5-5-555-8-8-888-7-7-7(X12)--8-7-5-3-|
D|-5-5-555-8-8-888-7-7-777-3-3-333-5-5-555-8-8-888-7-7-7---------------|

e|----------------------------------------------------------------------|
B|----------------------------------------------------------------------|
G|------------------------------------------------------------9-9-9-9-9-|
D|-5-5-555-8-8-888-7-7-777-3-3-333-5-5-555-8-8-888-7-7-7------x-x-x-x-x-|
A|-5-5-555-8-8-888-7-7-777-3-3-333-5-5-555-8-8-888-7-7-7(X12)-7-7-7-7-7-|
D|-5-5-555-8-8-888-7-7-777-3-3-333-5-5-555-8-8-888-7-7-7----------------|

e|--------------|----|-----------------------|-----------------------|
B|--------------|----|-----------------------|-----------------------|
G|--------------|----|-----------------------|-----------------------|
D|-0-0-0--------|-9\-|-----------------------|-----------------------|
A|-0-0-0--------|-9\-|-------------------(X2)|-------------------(X2)|
D|-0-0-0-2^~~~~~|-9\-|-222000333000222333----|-222000333000222333----|
   . . .               ..................

          ** ** ** ** ** *********************** ** ** ** ** **
          ***************BACKING FOR SOLO STARTS***************
          ** ** ** ** ** *********************** ** ** ** ** **

e|-----------------------|-----|-----------|-------------------------|   S|
B|-----------------------|-----|-----------|-------------------------|P  C|
G|-----------------------|-----|-7-7-7-7-7-|---------------999999999-|I  R|
D|-222000333000222333----|-0~~-|-x-x-x-x-x-|-0002223335557-xxxxxxxxx-|C  A|
A|-222000333000222333(X3)|-0~~-|-5-5-5-5-5-|-0002223335557-777777777-|K  P|
D|-222000333000222333----|-0~~-|-----------|-0002223335557-----------|   E|

e|---------------------------------------------------------------------|
B|---------------------------------------------------------------------|
G|------------------------------------------------------------10-9-7-5-|
D|-5-5-555-8-8-888-7-7-777-3-3-333-5-5-555-8-8-888-7-7-7-------x-x-x-x-|
A|-5-5-555-8-8-888-7-7-777-3-3-333-5-5-555-8-8-888-7-7-7(X12)--8-7-5-3-|
D|-5-5-555-8-8-888-7-7-777-3-3-333-5-5-555-8-8-888-7-7-7---------------|

e|------------------------------------------------------------|
B|------------------------------------------------------------|
G|------------------------------------------------------------|
D|-5-5-555-8-8-888-7-7-777-3-3-333-5-5-555-8-8-888-7-7-7------|
A|-5-5-555-8-8-888-7-7-777-3-3-333-5-5-555-8-8-888-7-7-7(X12)-|
D|-5-5-555-8-8-888-7-7-777-3-3-333-5-5-555-8-8-888-7-7-7------|

e|---------------------------------------------------------------------|
B|---------------------------------------------------------------------|
G|------------------------------------------------------------10-9-7-5-|
D|-5-5-555-8-8-888-7-7-777-3-3-333-5-5-555-8-8-888-7-7-7-------x-x-x-x-|
A|-5-5-555-8-8-888-7-7-777-3-3-333-5-5-555-8-8-888-7-7-7(X12)--8-7-5-3-|
D|-5-5-555-8-8-888-7-7-777-3-3-333-5-5-555-8-8-888-7-7-7---------------|

e|----------------------------------------------------------------------|
B|----------------------------------------------------------------------|
G|------------------------------------------------------------999999999-|
D|-5-5-555-8-8-888-7-7-777-3-3-333-5-5-555-8-8-888-7-7-7------xxxxxxxxx-|
A|-5-5-555-8-8-888-7-7-777-3-3-333-5-5-555-8-8-888-7-7-7(X12)-777777777-|
D|-5-5-555-8-8-888-7-7-777-3-3-333-5-5-555-8-8-888-7-7-7----------------|

e|-------|----------------------|---------------------------------------|
B|-------|----------------------|---------------------------------------|
G|-------|----------------------|---------------------------------------|
D|-0-0-0-|-000000000000-0-0-----|-000000000000-0-0-0-0-0-0-3~~~~~~~~~~~~|
A|-0-0-0-|-000000000000-0-0-(x3)|-000000000000-0-0-0-0-0-0-3~~~~~~~~~~~~|
D|-0-0-0-|-000000000000-0-0-----|-000000000000-0-0-0-0-0-0-3~~~~~~~~~~~~|
   . . .   ............ . .       ............ . . . . . .

                           * * ********* * *
                           *****THE END*****
                           * * ********* * *

If somebody wants to do the solo for this il glady put that in this     tab and give u 
for it to make life easy for everyone else!
Tap to rate this tab
 
# A B C D E F G H I J K L M N O P Q R S T U V W X Y Z