Song name
# A B C D E F G H I J K L M N O P Q R S T U V W X Y Z

Silent Civilian - Song Remains Un-named tab

Artist:Silent Civilian
Song:The Song Remains Un-Named
Tab By:Rob Vargo (SauronSatan666@Hotmail.com)
Tuning:Drop C 

	I looked at the other tab for this song and was quite disappointed with it. so i decided to do it myself.this band has killer riffs     
  	I'm not a fan of the singing though. i will be doing more tabs from them including solos when ever i get time. enjoy this one for now      

   Riff:1 Play:3X

D||--------------------------------------------------------------------------||
A||---------------------------------------------------*----------------------||
F||---1012-1012108--8------------87-575-5--578----3/7-87/3/732---------------||
C||---------------12-121081012---------8-78----------------------------------||
G||55--------------------------00--------------11--------------33--33-44--44-||
C||55--------------------------00--------------11--------------33333334444444||

   Riff:2 Play:2X
D||------------------------------------------------------------------------------------------||
A||------------------------------------------------------------------------------------------||
F||------------------------------------------------------------------------------------------||
C||-------------1110-8-810-----------------------------------1110-8-810----------------------||
G||0------------9-8--6-68-0-------------43-1-13-0------------9-8--6-68-0-------------43-8-888||
C||0-0-000-0-000----0-0---0-0-000-0-000-4301013-0-0-000-0-000----------0-0-000-0-000-4308-888||

   Riff:3 Play:2X
D||-----------------------||
A||-----------------------||
F||-----------------------||
C||---------------66666666||
G||0----2----3----44444444||
C||0----2----3------------||

   Riff:4 Play:2X                                                     Riff:4B Play:4X
D||-----------------------------------------------------------------||---------------------------||
A||-----------------------------------------------------------------||---------------------------||
F||-----------------------------------------------------------------||---------------------------||
C||---------------------------------------------------------66666666||----------71071071076969696||
G||-5-7-8-4-5-7-5-7-5-7-8-4-5-7-5-7-5-7-8-4-5-7-5-7-5-7-8-5-44444444||0--------------------------||
C||0-0-0-0-0-0-0-0-0-0-0-0-0-0-0-0-0-0-0-0-0-0-0-0-0-0-0-0-0--------||0000000000-----------------||

   Riff:5 Play:2x                                                 Riff:1B Play:2x
D||-------------------------------------------------------------||--------------------------------------------||
A||-------------------------------------------------------------||--------------------------------------------||
F||----------------------------------------------------------4--||--------------------------------------------||
C||-------------------------------------------------------456-65||--------------------------------------------||
G||0---------1-3-4----------1-3-4----------1-3-6--------56------||55-------00--------11---------33--33-44--44-||
C||0-0000000010304-00000000010304-00000000010306-6666666--------||55-------00--------11---------33333334444444||

Play Riff:1 1X
Play Riff:2 2X

   Solo:1
D||--------------------10121313131313---B13---------B-------------------------------------------------10131313-17171716--------------------------------|
A||--------------B-B----------B B B B1513--1515131113------B------------------------------------101213----------------B-B-B-B18-B-B-B------------18----|
F||1012-----101212-1212---------------------------------1412-1012-109-9109109109109109/7---91012-----------------------171717--171717171417141417--1714|
C||----12-12----------------------------------------------------------------------------10-------------------------------------------------------------|
G||----------------------------------------------------------------------------------------------------------------------------------------------------|
C||----------------------------------------------------------------------------------------------------------------------------------------------------|

D||------------------------------------------------------------------------------------------20-20-20||
A||-B-B-B-B-B-B--------1315171817151518171515181715151817151520181717201817172018171720181717-B--B--B||
F||12121212121212121415------------------------------------------------------------------------------||
C||--------------------------------------------------------------------------------------------------||
G||--------------------------------------------------------------------------------------------------||
C||--------------------------------------------------------------------------------------------------||
   Solo:2
D||--------------------------------------------------------------85---58/13138------813/171713------1317/202017------1720/222218------1822|
A||---------------------------1817/201817181715171513111311101311--6-6--------10--10----------15--15-----------18--18-----------20--20----|
F||-----1012-----1012101217-15--------------------------------------5-----------10--------------14---------------17---------------19------|
C||---10-------10-------------------------------------------------------------------------------------------------------------------------|
G||810------810---------------------------------------------------------------------------------------------------------------------------|
C||---------------------------------------------------------------------------------------------------------------------------------------|

D||201817--1817-B-B-B-B-B-B-B-182017201520--20--20--20-171815181318--18--18--18151713171217--17--------------------------*B|
A||------20----19191919191919-------------18--17-------------------17--15------------------15--1315131513111315131513151313|
F||-----------------------------------------------19-----------------------17----------------------------------------------|
C||------------------------------------------------------------------------------------------------------------------------|
G||------------------------------------------------------------------------------------------------------------------------|
C||------------------------------------------------------------------------------------------------------------------------|

D||------------------------------------------------151718------15171820-2020-17-17181718171817-1818-17---||
A||------------111315------111315151718111315151718------151718----------B-B-----------------------------||
F||------101214------101214------------------------------------------------------------------------------||
C||101214------------------------------------------------------------------------------------------------||
G||------------------------------------------------------------------------------------------------------||
C||------------------------------------------------------------------------------------------------------||

Play Riff:3  1X
Play Riff:4  2X
Play Riff:4B 4X
Play Riff:5  2X
Play Riff:1B 2X
Play Riff:1  4X

















Tap to rate this tab
# A B C D E F G H I J K L M N O P Q R S T U V W X Y Z