Song name
# A B C D E F G H I J K L M N O P Q R S T U V W X Y Z

Silent Civilian - Blood Red Sky tab

----------------------------------------------------------------------------
			  blood red sky - silent civilian
----------------------------------------------------------------------------
Tabbed by: sean crow

Email:  die_for_nothing_323@hotmail.com
Aim: blackorange555                ***** rate AND comment please *****

Tuning: DADGBe                      This song isn't on "rebirth of..." and i
Real song: CGCFAd                   dont know where i got it but it is 
                                    definately silent civilian and a great
                                    song so if u want it email me!!

e|-----------------------------------------------------------|
B|-----------------------------------------------------------|
G|-8-7-5-----------8-7-5-------------------------------------|
D|-------8-7-5-----------8-7-5------00-00-00-00-00-00-00-00--|
A|-------------8-7-------------8-7--00-00-00-00-00-00-00-00--|
E|----------------------------------00-00-00-00-00-00-00-00--|
                                    .. .. .. .. .. .. .. ..
e|----------------------------------------------|
B|----------------------------------------------|
G|----------------------------------------------|
D|-5/8--5/8--00-00-00-00-5/8--5/10--00-00-00-00-|  Play line 4x
A|-3/6--3/6--00-00-00-00-3/6--3/-8--00-00-00-00-|
E|-----------00-00-00-00------------00-00-00-00-|
             .. .. .. ..            .. .. .. ..
e|-----------------------------------------------|
B|-----------------------------------------------|
G|-9--13--12--10--15-14----10--15--14--12--17-15-|
D|-x---x---x---x---x--x-----x---x---x---x---x--x-|  Play line 2x
A|-7--11--10---8--13-12-----8--13--12--10--15-13-|
E|-----------------------------------------------|

e|----------------------------------------------------|
B|----------------------------------------------------|
G|----------------------------------------------------|
D|-7-7-77-5-5-55-5-5-55-2-2-22-3~~-33333333-5555-7777-|  Play line 2x
A|-7-7-77-6-6-66-5-5-55-2-2-22-3~~-33333333-5555-7777-|
E|-7-7-77--------5-5-55-2-2-22-3~~-33333333-5555-7777-|

e|-----------------------|
B|-----------------------|
G|-----------------------|
D|-000-000-000-000-00-00-| 
A|-000-000-000-000-00-00-|
E|-000-000-000-000-00-00-|
   ... ... ... ... .. ..
e|----------------------------------------------|
B|----------------------------------------------|
G|----------------------------------------------|
D|-5/8--5/8--00-00-00-00-5/8--5/10--00-00-00-00-|  Play line 4x
A|-3/6--3/6--00-00-00-00-3/6--3/-8--00-00-00-00-|
E|-----------00-00-00-00------------00-00-00-00-|
             .. .. .. ..            .. .. .. ..

e|---------------------------------------------|
B|--------------------------------12*----------|
G|-9--13--12--10--15-14----10--15----12--17-15-|
D|-x---x---x---x---x--x-----x---x-----x---x--x-|  * harmonic...not correct
A|-7--11--10---8--13-12-----8--13----10--15-13-|    fret but still sounds
E|---------------------------------------------|    good when played!!

e|-----------------------------------------------|
B|-----------------------------------------------|
G|-9--13--12--10--15-14----10--15--14--12--17-15-|
D|-x---x---x---x---x--x-----x---x---x---x---x--x-|  
A|-7--11--10---8--13-12-----8--13--12--10--15-13-|
E|-----------------------------------------------|

e|----------------------------------------------------|
B|----------------------------------------------------|
G|----------------------------------------------------|
D|-7-7-77-5-5-55-5-5-55-2-2-22-3~~-33333333-5555-7777-|  Play line 2x
A|-7-7-77-6-6-66-5-5-55-2-2-22-3~~-33333333-5555-7777-|
E|-7-7-77--------5-5-55-2-2-22-3~~-33333333-5555-7777-|

e|------------------|
B|------------------|
G|-7~~-5~~-8~~-10~~-|
D|-x~~-x~~-x~~--x~~-|  Play line 2x
A|-5~~-3~~-6~~--8~~-|
E|------------------|

e|--------------------------------------------|
B|--------------------------------------------|
G|--------------------------------------------|
D|-000---000--333---333--555---555--222---222-|  Play line 2x
A|-000-0-000--333-3-333--555-5-555--222-2-222-|
E|-000-0-000--333-3-333--555-5-555--222-2-222-|
       .          .          .          .
e|-----------------------------------------------------------|
B|-----------------------------------------------------------|
G|-8-7-5-----------8-7-5-------------------------------------|
D|-------8-7-5-----------8-7-5------00-00-00-00-00-00-00-00--|
A|-------------8-7-------------8-7--00-00-00-00-00-00-00-00--|
E|----------------------------------00-00-00-00-00-00-00-00--|
                                    .. .. .. .. .. .. .. ..
e|----------------------------------------------|
B|----------------------------------------------|
G|----------------------------------------------|
D|-5/8--5/8--00-00-00-00-5/8--5/10--00-00-00-00-|  Play line 4x
A|-3/6--3/6--00-00-00-00-3/6--3/-8--00-00-00-00-|
E|-----------00-00-00-00------------00-00-00-00-|
             .. .. .. ..            .. .. .. ..
e|----------------------------------------------------|
B|----------------------------------------------------|
G|----------------------------------------------------|
D|-7-7-77-5-5-55-5-5-55-2-2-22-3~~-33333333-5555-7777-|  Play line 2x
A|-7-7-77-6-6-66-5-5-55-2-2-22-3~~-33333333-5555-7777-|
E|-7-7-77--------5-5-55-2-2-22-3~~-33333333-5555-7777-|

e|---------------------------------------------------------------------|
B|---------------------------------------------------------------------|
G|---------------------------------------------------------------------|
D|-0000000000000000-3333333333333333-5555555555555555-2222222222222222-|
A|-0000000000000000-3333333333333333-5555555555555555-2222222222222222-|
E|-0000000000000000-3333333333333333-5555555555555555-2222222222222222-|

e|----------------------------------------------------|
B|----------------------------------------------------|
G|-7~~-5~~-8~~-10~~--8-7-5-----------8-7-5------------|
D|-x~~-x~~-x~~--x~~--------8-7-5-----------8-7-5------|
A|-5~~-3~~-6~~--8~~--------------8-7-------------8-7--|
E|----------------------------------------------------|

e|--------------------------------------|
B|--------------------------------------|
G|--------------------------------------|   THE END!!
D|-00-00-00-00-00-00-00-00--5/8--5/8-\--|
A|-00-00-00-00-00-00-00-00--3/6--3/6-\--|   like i said...if u like 'SC'
E|-00-00-00-00-00-00-00-00--------------|   but dont know the song, email me
                                            and il send u it!!
Tap to rate this tab
 
# A B C D E F G H I J K L M N O P Q R S T U V W X Y Z