Song name
# A B C D E F G H I J K L M N O P Q R S T U V W X Y Z

Silent Civilian - Dead To Me 2006 tab

----------------------------------------------------------------------------
			     dead to me 2006 - silent civilian
----------------------------------------------------------------------------
Tabbed by: sean crow
Email:  die_for_nothing_323@hotmail.com

Tuning:  CGCFAd               The intro might not be spot on (in fact i  
                              know it isnt) but tis ok and it stays with the
                              song if played right...RATE AND COMMENT THO!!

e|---------------------------------------------|
B|---------------------------------------------|
G|---------------------------------------------| quick stop after 
D|-7-5---------------------------------0-0-0-0-| each chord
A|-----8p7-8-7-5-3h5p3---2-------------0-0-0-0-|
E|---------------------0---000000-3~2~-0-0-0-0-|
                       .   ......       
e|-----------------------------------------|
B|-----------------------------------------|
G|-----------------------------------------|
D|---77---------77---------77---------8866-| Play line 3x
A|---55---------55---------55---------6644-|
E|-0----0-0-000----0-0-000----0-0-000------|
   .    . . ...    . . ...    . . ...
e|----------------------------------------------------|
B|----------------------------------------------------|
G|----------------------------------------------------|
D|---77---------77---------77---------------5---------|
A|---55---------55---------55---------5-6-8---8-6-5-6-|
E|-0----0-0-000----0-0-000----0-0-000-----------------|
   .    . . ...    . . ...    . . ...

e|---------------------------------------------|
B|---------------------------------------------| if u want u can play each
G|---------------------------------------------| chord once and sustain!!
D|-88888888-6666-5555-00000000-------5---------| Play line 3x
A|-88888888-6666-5555-00000000-5-6-8---8-6-5-6-|
E|-88888888-6666-5555-00000000-----------------|

e|---------------------------|
B|---------------------------|
G|---------------------------|
D|-88888888-6~~-5~~-0~~-0-00-|
A|-88888888-6~~-5~~-0~~-0-00-|
E|-88888888-6~~-5~~-0~~-0-00-|

e|--------------------------------------------------------------|
B|--------------------------------------------------------------|
G|-----------------------------------------------------------7*-|
D|-0---6---5---(x3)-0-----------0---6---5---(x3)-------5-7-8----|
A|-0-0-6-0-5-0------0-00000000--0-0-6-0-5-0------5-6-8----------|
E|-0-0-6-0-5-0------0-00000000--0-0-6-0-5-0---------------------|
     .   .   .        ........    .   .   .
e|-----------------------------------------------|
B|-----------------------------------------------|
G|-----------------------------------------------|
D|-0---6---5---(x3)-0-----------0---6---5---(x3)-|
A|-0-0-6-0-5-0------0-00000000--0-0-6-0-5-0------|
E|-0-0-6-0-5-0------0-00000000--0-0-6-0-5-0------|
     .   .   .        ........    .   .   .
e|---------------------------------------------|-------------|
B|---------------------------------------------|             |
G|---------------------------------------------|             |
D|-77---------77---------55---------55---------|             |
A|-77---------77---------55---------55---------|             |
E|-77-7-7-777-77-7-7-777-55-5-5-555-55-5-5-555-|             |  
      . . ...    . . ...    . . ...    . . ...    PLAY 2x    |
e|---------------------------------------------|             |
B|---------------------------------------------|             |
G|---------------------------------------------|             |
D|-88---------88---------66---------55---------|             |
A|-88---------88---------66---------55---------|             |
E|-88-8-8-888-88-8-8-888-66-6-6-666-55-5-5-555-|-------------|
      . . ...    . . ...    . . ...    . . ...
e|-----------------------------|-----------------------------|
B|-----------------------------|-----------------------------|
G|-12-------------------(x3)---|---------------(x3)----------|
D|----15-13-12h13p12-10------8-|-5^-3------------------------|
A|-----------------------------|------7-5h7p5-3-----2-3-5-7/-|
E|-----------------------------|-----------------------------|

          ***** SOLO STARTS (rythm only tho)*****

e|-----------------------------------------|
B|-----------------------------------------|
G|-----------------------------------------|
D|---77---------77---------77---------8866-| Play line 4x
A|---55---------55---------55---------6644-|
E|-0----0-0-000----0-0-000----0-0-000------|
   .    . . ...    . . ...    . . ...
e|----------------------------------------------|
B|----------------------------------------------|
G|----------------------------------------------|
D|-0~----0~----5~----5~----3~----3~----0~----2~-|
A|-0~-00-0~-00-5~-55-5~-55-3~-33-3~-33-0~-00-2~-|
E|-0~-00-0~-00-5~-55-5~-55-3~-33-3~-33-0~-00-2~-|
      ..    ..    ..    ..    ..    ..    ..

                     ***** SOLO ENDS *****

e|-----------------------------------------|
B|-----------------------------------------|
G|-----------------------------------------|
D|---77---------77---------77---------8866-| 
A|---55---------55---------55---------6644-|
E|-0----0-0-000----0-0-000----0-0-000------|
   .    . . ...    . . ...    . . ...
e|------------------------------------|
B|------------------------------------|
G|------------------------------------|
D|---77---------77---------77---------|
A|---55---------55---------55---------|
E|-0----0-0-000----0-0-000----0-0-000-|
   .    . . ...    . . ...    . . ...
e|-----------------------------------------|
B|-----------------------------------------|
G|-----------------------------------------|
D|---77---------77---------77---------8866-| 
A|---55---------55---------55---------6644-|
E|-0----0-0-000----0-0-000----0-0-000------|
   .    . . ...    . . ...    . . ...
e|----------------------------------------------------|
B|----------------------------------------------------|
G|----------------------------------------------------|
D|---77---------77---------77---------------5---------| 
A|---55---------55---------55---------5-6-8---8-6-5-6-|
E|-0----0-0-000----0-0-000----0-0-000-----------------|
   .    . . ...    . . ...    . . ...
e|---------------------------------------------|
B|---------------------------------------------|
G|---------------------------------------------| 
D|-88888888-6666-5555-00000000-------5---------| Play line 3x
A|-88888888-6666-5555-00000000-5-6-8---8-6-5-6-|
E|-88888888-6666-5555-00000000-----------------|

e|---------------------------|
B|---------------------------|
G|---------------------------|
D|-88888888-6~~-5~~-0~~-0-00-|
A|-88888888-6~~-5~~-0~~-0-00-|
E|-88888888-6~~-5~~-0~~-0-00-|

e|---------------------------------------------|-------------|
B|---------------------------------------------|             |
G|---------------------------------------------|             |
D|-77---------77---------55---------55---------|             |
A|-77---------77---------55---------55---------|             |
E|-77-7-7-777-77-7-7-777-55-5-5-555-55-5-5-555-|             |  
      . . ...    . . ...    . . ...    . . ...    PLAY 2x    |
e|---------------------------------------------|             |
B|---------------------------------------------|             |
G|---------------------------------------------|             |
D|-88---------88---------66---------55---------|             |
A|-88---------88---------66---------55---------|             |
E|-88-8-8-888-88-8-8-888-66-6-6-666-55-5-5-555-|-------------|
      . . ...    . . ...    . . ...    . . ...
e|---------------------------------------------|
B|---------------------------------------------|
G|---------------------------------------------| quick stop after 
D|-7-5---------------------------------0-0-0-0-| each chord
A|-----8p7-8-7-5-3h5p3---2-------------0-0-0-0-|
E|---------------------0---000000-3~2~-0-0-0-0-|
                       .   ......
e|--------------------------------------------------------------|
B|--------------------------------------------------------------|
G|-----------------------------------------------------------7*-|
D|-0---6---5---(x3)-0-----------0---6---5---(x3)-------5-7-8----|
A|-0-0-6-0-5-0------0-00000000--0-0-6-0-5-0------5-6-8----------|
E|-0-0-6-0-5-0------0-00000000--0-0-6-0-5-0---------------------|
     .   .   .        ........    .   .   .
e|---------------------------------------------------------------|
B|---------------------------------------------------------------|
G|-----------------------------------------------------------5-7-|
D|-0---6---5---(x3)-0-----------0---6---5---(x3)-------5-7-8-----|
A|-0-0-6-0-5-0------0-00000000--0-0-6-0-5-0------5-6-8-----------|
E|-0-0-6-0-5-0------0-00000000--0-0-6-0-5-0----------------------|
     .   .   .        ........    .   .   .
e|-------------------------------------------------------------|
B|-------------------------------------------------------------|
G|-------------------------------------------------------------|
D|-0---6---5---(x3)-0-----------0---6---5---(x3)-------5-7-8-5-|
A|-0-0-6-0-5-0------0-00000000--0-0-6-0-5-0------5-6-8---------|
E|-0-0-6-0-5-0------0-00000000--0-0-6-0-5-0--------------------|
     .   .   .        ........    .   .   .
e|-------------------------------------------------------------|
B|-------------------------------------------------------------|
G|-----------------------------------------5-7-------------5-7-|
D|-0---6---5---(x3)-0----------------5-7-8-----------5-7-8-----|
A|-0-0-6-0-5-0------0-00000000-5-6-8-----------5-6-8-----------|
E|-0-0-6-0-5-0------0-00000000---------------------------------|
     .   .   .        ........    

RATE AND COMMENT PLEASE

.  = palm-mute
*  = pinch harmonic
~  = sustain note (~~ = longer)
/  = slide up
() = play part however many times
Tap to rate this tab
 
# A B C D E F G H I J K L M N O P Q R S T U V W X Y Z