Song name
# A B C D E F G H I J K L M N O P Q R S T U V W X Y Z

Silent Civilian - Funerall tab

NOTE:MOST CREDIT GOES TO SEANUS "THE GOD OF SC TABS"LOL
NOTE I DONT HAVE THE PRE CHORUS BECUASE ITS HARD TO HEAR
NOTE#2:I DONT HAVE MOST OF THE GUITAR PARTS IN HEAR I JUST PRETTY MUCH THE STUFF YOU CAN
BUT I DONT HAVE THE SOLO PRECHOURES AND THE PART UNDER THE CHORUS AND THE SMALL SOLO
IT THIS TAB IS JUST TO GIVE PEOPLE AN IDEA HOW IT SHOULD BE SO THEY ADD ON THIS TAB AND 
IT BETTER THAN IT ALREADY IS.I HAVE THE SOLO PART FOR JONNY BUT I CANT PUT IT UP YET
SOME PARTS ARE MISSING.

TUNING:DROP C(CGCFAD)

INTRO PART 1

|---------------------------------------------------------------|
|---------------------------------------------------------------|
|---------------------------------------------------------------|
|---7-0-8-7-5/8/7---------7-0-8-7-5/8/6-------------------------|
|---5-0-6-5-3/6/5---------5-0-6-5-3/6/4-------------------------|
|-----------------00-00-00------------------------------|-------|
      .           .. .. ..                                       | 2x  |
                                                                 |     |
|-------------------------------------------------------|-|-------|
|-----------------------------------------------------------------|
|-----------------------------------------------------------------|
|---7-0-8-7-6/9/7---------7-0-8-7-5/7--5-6-5-4--------------------|
|---5-0-6-5-4/8/5---------5-0-6-5-3/7--3-4-3-2--------------------|
|-----------------00-00-00----------------------------------------|
      .           .. .. ..  .

INTRO PART 2
|--------------------------------------------------------------|
|--------------------------------------------------------------|
|--------------------------------------------------------------|
|--7---7-8-9-3-8-7---6--9-3-8-7---8--9-3-8-7--6--9-3-8---------|
|--5---5-6-7-5-6-5---4--7-5-6-5---6--7-5-6-5--4--7-5-6---------|
|--------------------------------------------------------------|

NOT SURE FOR THE ONE BEHIND INTRO 2

VERSE

|--------------------------------------------------------------|
|--------------------------------------------------------------|
|-------------------------7*------------------------------8*---|
|----------------------------------------8-0-7-0-5-------------|
|----6--5--8---6---5---------6---5-----------------------------|
|--0--0--0---0---0---0------0---0------------------------------|
|  .  .  .   .   .   .      .  .
|--------------------------------------------------------------|
|--------------------------------------------------------------|
|-------------------------7*-----------------------------------|
|----------------------------------------8888-7777-------------|
|----6---5---8---6---5---------6---5-----8888-7777-------------|
|-0---0---0---0-----0---0----0---0-------8888-7777-------------|
  .   .   .   .     .   .    .   .

PRE-CHRORUS
CANT HEAR IT

CHORUS
|---------------------------------------------|
|---------------------------------------------|
|---------------------------------------------|
|-22222222-11111111-55555555-444-333-2222-0000| 4x
|-22222222-11111111-55555555-444-333-2222-0000|
|-22222222-11111111-55555555-444-333-2222-0000|


|----------------------------------------|------------------------|
|----------------------------------------|------------------------|
|----------------------------------------|------------------------|
|---7-0-8-7-6/9/7---------7-0-8-7-6/9/6--|X28-0-7-0-5-------------|
|---5-0-6-5-4/8/5---------5-0-6-5-4/7/4--|------------8-7-5-3-2-1-|
|-----------------0-0-0-0----------------|------------------------|
      .           . . . .   .


|------------------|
|------------------|
|------------------|
|-000-0-000-0--\9--|
|-000-0-000-0--\9--|
|-000-0-000-0--\9--|
  ... . ... .

VERSE

|--------------------------------------------------------------|
|--------------------------------------------------------------|
|-------------------------7*------------------------------8*---|
|----------------------------------------8-0-7-0-5-------------|
|----6--5--8---6---5---------6---5-----------------------------|
|--0--0--0---0---0---0------0---0------------------------------|
|  .  .  .   .   .   .      .  .
                                                                    |
|-----------------------------------------------------------------|
|-----------------------------------------------------------------|
|-------------------------7*--------------------------------------|
|----------------------------------------8888-7777----------------|
|----6---5---8---6---5---------6---5-----8888-7777----------------|
|-0---0---0---0----0---------0---0-------8888-7777----------------|
  .   .   .   .     .        .   .

THEN PLAY THE INTRO 2 part

CHORUS
|---------------------------------------------|
|---------------------------------------------|
|---------------------------------------------|
|-22222222-11111111-55555555-444-333-2222-0000| 4x
|-22222222-11111111-55555555-444-333-2222-0000|
|-22222222-11111111-55555555-444-333-2222-0000|


SOLO BACKING
|-----------------------------------------------------------|
|-----------------------------------------------------------|
|-----------------------------------------------------------|
|-------------1-------------1-------------1--6-6666--6-66-5-|x6
|-00-00-00-00-1-00-00-00-00-1-00-00-00-00-1--6-6666--6-66-5-|
|-00-00-00-00-1-00-00-00-00-1-00-00-00-00-1--6-6666--6-66-5-|
  .. .. .. ..   .. .. .. ..   .. .. .. ..

SOLO BACKING FOR JONNY'S PART

|-------------------------|
|-------------------------|
|-------------------------|
|-------------------------|  Play 4x
|-0-x16-2-x16-5-x16-3-x16-|
|-0-----2-----5-----3-----|
  .     .     .     .


THEN GO BACK TO THIS

|-----------------------------------------------------------|
|-----------------------------------------------------------|
|-----------------------------------------------------------|
|-------------1-------------1-------------1--6-6666--6-66-5-|x6
|-00-00-00-00-1-00-00-00-00-1-00-00-00-00-1--6-6666--6-66-5-|
|-00-00-00-00-1-00-00-00-00-1-00-00-00-00-1--6-6666--6-66-5-|
  .. .. .. ..   .. .. .. ..   .. .. .. ..
Tap to rate this tab
# A B C D E F G H I J K L M N O P Q R S T U V W X Y Z