Guitaretab - guitar tabs
Song name
# A B C D E F G H I J K L M N O P Q R S T U V W X Y Z

Silent Drive - Davey Crockett tab

This is without doubt my favorite Silent Drive song, and its arguably the best song on 
is Worth It'


Tuning: Drop C#

INTRO/VERSE


In the verse, don't play this little lick-thingy
                        |<-------->|

D#----------------------0----------------|
A#------1~------------1---1-0h1p0--------|
F#--1~--2~--1~~---1~--2-----------2--1~--|
C#--2~--2~--2~~---0~--2------------2-2~--|
G#--2~--0~--2~~---2~--0--------------2~--|
C#--2~------2~~---2~-----------------2~--|

D#--0~-0-0-0-0-0-2~--2-2-2-2-2~-2-2~-----3-2------------|
A#--3~-3-3-1-1-3-3~--3-3-1-1-0~-0-0~---0-----0----------|
F#--0~-0-0-0-0-0-2~--2-2-2-2-2~-2-2~-2---------2b3r2r0--|
C#--2~-2-2-2-2-2-0~--0-0-0-0-1~-1-1~--------------------|
G#--3~-3-3-3-3-3-------------2~-2-2~--------------------|
C#------------------------------------------------------|

I'm afraid to close my eyes
Afraid to hear phones ringing
Just to realize
The words on the other side
The other side might break my heart
And we don't have the technology to fix
Something like this
These words on the other side -


VERSE PART 2 (When distortion comes in here, they just play the chords, none of the 
pickings)
[ Tab from: http://www.guitaretab.com/s/silent-drive/92846.html ]
D#-----0---0-----0---0----0---0---0---0--|
A#------0-0---1~--1-1------0-0-----0-0---|
F#--1~---1----2~---2---1~---1---1~--1----|
C#--2~--------2~-------2~-------2~-------|
G#--2~--------0~-------2~-------2~-------|
C#--2~-----------------2~-------2~-------|

D#----0---0-----0-------------0---0----0---0--|
A#-----0-0---1~--1 0h1p0-------0-0------0-0---|
F#--1~--1----2~----------2--1~--1----1~--1----|
C#--0~-------2~-----------2-2~-------2~-------|
G#--2~-------0~-------------2~-------2~-------|
C#--2~----------------------2~-------2~-------|

D#--0~-0-0-0-0-0-2~--2-2-2-2-2~-2-2~-----3-2------------|
A#--3~-3-3-1-1-3-3~--3-3-1-1-0~-0-0~---0-----0----------|
F#--0~-0-0-0-0-0-2~--2-2-2-2-2~-2-2~-2---------2b3r2r0--|
C#--2~-2-2-2-2-2-0~--0-0-0-0-1~-1-1~--------------------|
G#--3~-3-3-3-3-3-------------2~-2-2~--------------------|
C#------------------------------------------------------|


- These words will break my heart
And I have been dreaming for years
About these imposters; they're trying to pose like you
Such bright smiles and eyes and hands like these
Are not that *distortion* easy to confuse
And beleive me when I try to replace the things I lose
With bright smiles and eyes and hands like these
Are not that easy to confuse -->(Not too sure about                         that nasty 
thing he does right here...)
So beleive me when I try to replace the things I lose
With words; so easily fail
With words; so easily fail

(not 100% about these final lyrics, but its a guitar tab, right?)


OUTRO IS THE SAME AS VERSE PART 2 (you'll be able to get it)
Related for Davey Crockett tab