Song name
# A B C D E F G H I J K L M N O P Q R S T U V W X Y Z

Silent Sanctuary - Kundiman tab

Kundiman by Silent Sanctuary
Album: Fuschiang Pag-Ibig
tabbed by ferdz tobats
time: 9:10 
date: feb 09, 2011
email: siepherd@yahoo.com



intro: C#m - Ebm - E

e|-----------------------------------------------|
B|----------------------------------7------------|
G|------4------------4--------8-------8----------|
D|----2---2--------4---4----9-----9--------------|
A|--4-------4s6--6--------7-----7--------7-------|
E|-----------------------------------------------|


e|---------------------------------------------|
B|---------------------------------------------|
G|------4------------4--------8----------------|
D|----2---2--------4---4----9------------------|
A|--4-------4s6--6--------7--------------------|
E|---------------------------------------------|


verse: C#m - Ebm - E
     
|------x-----x----7-----------------|
|------5-----7----7-----------------|
|------4-----6----9-----------------|
|------x-----x----9-----------------|
|------4-----6----7-----------------|
|-----------------------------------|


pre-chorus: C#m - Ebm - C#m - F#


|------x-----x----x---2--------------|
|------5-----7----5---2--------------|
|------4-----6----4---2--------------|
|------x-----x----x---4--------------|
|------4-----6----4---4--------------|
|---------------------2--------------|


chorus: E - Ebm - C#m - Ebm - C#m - Ebm


|----7----------------------------|
|----7----7--5---7----------------|
|----9----6--4---6----------------|  2x
|----9----x--x---x----------------|
|----7----6--4---6----------------|
|---------------------------------|


       
|------x-----x------------|
|------5-----7------------|
|------4-----6------------|
|------x-----x------------|
|------4-----6------------|
|-------------------------|
dahil ang tanging panalangin ko...


bridge:
Ebm - E 
Ebm - G#m - C#m
A2 - G#m - G - F#

instrumental: Ebm - F# - Ebm - C#m - Ebm - C#m - B
              Ebm - F# - Ebm - F#
              Ebm - F# - Ebm - C#m - Ebm - C#m - B
              Ebm - F# - Ebm - B - C#m - F#
      

outro: intro: C#m - Ebm - E


lyrics: 

Para kang asukal 
Sintamis mong magmahal 
Para kang Pintura 
Buhay ko ikaw ang nagpinta 
Para kang unan 
Pinapainit mo ang aking tiyan 
Para kang kumot 
Na yumayakap sa tuwing ako'y nalulungkot 

Refrain: 
Kaya't wag magtataka 
Kung bakit ayaw kitang mawala 

Chorus: 
Kung hindi man tayo hanggang dulo 
Wag mong kalimutan 
nandito lang ako 
laging umaalalay 
hindi ako lalayo 
Dahil ang taning panalangin ko ay ikaw 


II. 
Di baleng maghapon na umulan 
Basta't ikaw ang sasandalan liwanag 
Ng lumulubog na araw 
kay sarap pagmasdan 
Lalo na kapag nasisinagan ang iyong mukha 
Ayoko nang magsawa 
hinding hindi magsasawa sa iyo 
(REPEAT REFRAIN AND CHORUS) 

Bridge: 
Bahala na ayoko muna magsalita 
hayaan na muna natin 
ang hatol ng tadhana 
(REPEAT CHORUS) 
Dahil ang tanging panalangin, 
Dahil ang tangin panalanigin ko ay ikaw


hi nga pla k yna miss you, happy heart's day :) 
Tap to rate this tab
 
# A B C D E F G H I J K L M N O P Q R S T U V W X Y Z