Song name
# A B C D E F G H I J K L M N O P Q R S T U V W X Y Z

Silent Sanctuary - Kundiman tab

Title: Kundiman
Artist: Silent Sanctuary
Tabbed by: Artemio San Diego
E-mail/Facebook: Artemio_gitaroo@yahoo.com

whu! 1st tab ko po ito, sana po magustuhan niyo, 

Intro:
e|--------------------------------------|
B|----------------------------------8---|
G|------5---------7-5-----9-------9-----| 
D|----3---3-------------7---7---7-------|
A|--5-------5/7-7-----8-------8---------| 
E|--------------------------------------|

e|--------------------------------------|
B|--------------------------------------| 
G|------5---------7-5-----9-------9-----| 
D|----3---3-------------7---7---7-------| 
A|--5-------5/7-7-----8-------8---------| 
E|--------------------------------------| 

Guitar1

     C2   Dm   C2   Dm
e|---3----3----3----3------|
B|---3----3----3----3------| 2x
G|---0----2----0----2------|
D|---2----0----2----0------|
A|---3----0----3----0------|
E|--------2---------2------|

Guitar2
(violin) tinry ko lang naman po na kapaain ai.

e|----------------------------------------------------------------|
B|------9h10-9h10-9h10-9h10-9h10-9h10----6p5-6p5-6p5-6p5-6p5-6p5--|
G|--h12-------------------------------h9--------------------------| 2x (medyo 
D|----------------------------------------------------------------| mabilis po ito)
A|----------------------------------------------------------------|
E|----------------------------------------------------------------|

Verse1:
Guitar 1

     C2   Dm  Em    Dm
e|---3----3----3----3------|
B|---3----3----3----3------|
G|---0----2----0----2------|
D|---2----0----2----0------|
A|---3----0----2----0------|
E|--------2---------2------|

Guitar 2

e|--------------------------------------|
B|----------------------------------8---| 
G|------5---------7-5-----9-------9-----| 9x(hanggan matapos po yung Verse 1)
D|----3---3-------------7---7---7-------| 
A|--5-------5/7-7-----8-------8---------|
E|--------------------------------------| 

Refrain:

    C2   Dm   Em    G
e|---3----3----3----3------|
B|---3----3----3----3------|
G|---0----2----0----0------|
D|---2----0----2----0------|
A|---3----0----2----2------|
E|--------2---------3------|

Chorus:

    C2   Dm   Em    G
e|---3----3----3----3------|
B|---3----3----3----3------|
G|---0----2----0----0------| (dahan dahan lang po yung strum para 
D|---2----0----2----0------|  maganda yung dating!)
A|---3----0----2----2------|
E|--------2---------3------|

(Repeat Intro)   
 C2-Dm-C2-Dm

Verse 2:
(Same as Verse 1.)

Refrain 2 (Same din!, bagsak bagsak po yung strum!)

Chorus: 
(Same parin itodo nalang yung strum)

Bridge:

Bahala na....

e|------------------------------------|
B|------5-5-5-5-5-5-5--7-7-7-7-7-7-7--|
G|------5-5-5-5-5-5-5--7-7-7-7-7-7-7--|
D|------------------------------------|
A|------------------------------------|
E|------------------------------------|

Ayoko munang........... Mag.. Salita..

e|-------------------- ------ ----------------|
B|------5-5-5-5-5-5-5- ------ ----------------|
G|------5-5-5-5-5-5-5- ----7- ---9----7----5--|
D|-------------------- ----7- ---9----7----5--|
A|-------------------- --5--- -7----5----3----|
E|-------------------- ------ ----------------|


e|-------------------------------------|
B|-------------------------------------|
G|------5---5---5---5---5---5---5---5--|
D|------5---5---5---5---5---5---5---5--|
A|----3---3---3---3---3---3---3---3----| (Bagsak Bagsak po ang strum!)
E|-------------------------------------|


e|-------------------------------------|
B|-------------------------------------|
G|------7---7---7---7---7---7---7---7--|
D|------7---7---7---7---7---7---7---7--|
A|----5---5---5---5---5---5---5---5----|
E|-------------------------------------|

             "Last Part"
e|-------------------------------------|
B|-------------------------------------|
G|------9---9---9---9---9---9---9---9--|
D|------9---9---9---9---9---9---9---9--|
A|----7---7---7---7---7---7---7---7----|
E|-------------------------------------| (2x po ito, pero sa 2nd time yung "last part" po wala na)

        (kapalit ng "last part")
e|--------------------------------------------|
B|--------------------------------------------| 2x
G|-----5--/--7---/---9--\-----7--\-----5------| (pastrum po ito, tapos slide nyo para sumaya
D|-----5-/---7--/----9---\----7---\----5------| kayo, pakinggan nyo nlang maigi)
A|---3--/--5---/---7------\-5------\-3--------|
E|--------------------------------------------|


e|--------------------------------------------|
B|--------------------------------------------| (hindi ko sure kung ilang beses to,
G|-----5--/--7---/---9--\-----7--\-----5------| PERO! mga 6 times yun)
D|-----5-/---7--/----9---\----7---\----5------|
A|---3--/--5---/---7------\-5------\-3--------|
E|--------------------------------------------|

e|----------------------| 
B|----------------------|  _______
G|-----5--/--7---/---9--|  \     /
D|-----5-/---7--/----9--|   \   /  (malaking bagsak!)
A|---3--/--5---/---7----|    \ /
E|----------------------|     @

Repeat Chorus na po.
(2x)

then yung Intro ulitin lang po mga 4x....(C2-Dm-C2-Dm)

Thanks po sa lahat ng tumangkilik!!! next time ulit..

(Artemio_gitaroo@yahoo.com)
Tap to rate this tab
 
# A B C D E F G H I J K L M N O P Q R S T U V W X Y Z