Song name
# A B C D E F G H I J K L M N O P Q R S T U V W X Y Z

Silent Sanctuary - Summer Song tab

summer song
silent sanctuary
tabber: MARVIN TAPIKO TAKUPE
1st tab ko!!! 99% sure ako... kasi kapa-kapa!!!
add nyo nalang ako sa fb overture_1995@yahoo.com
adlib lang to!!!

E|------------------------------------------------------|
B|------------------------------------------------------|
G|----------------9-------------------------------------|
D|-----7-9---9s11---11s9---7---9s7------7---------------|
A|-7h9------------------------------7s9----7s9----7-----|
E|------------------------------------------------------|

E|---------------------------------------------------------------|
B|---------------------------------------------------------------|
G|-11-10-9------------------------------------------9s11----9----|
D|---------12-----11--12--12s14----11------9s11--12--------------|
A|------------------------------------12-------------------------|
E|---------------------------------------------------------------|

E|-12-11-10-9---------------------------------------------------------|
B|-11---------12---14-13-12---10--9--9h10p9---10s12--10---------------|
G|---------------------------------------------9s11---9----------9----|
D|--------------------------------------------------------9h11--------|
A|--------------------------------------------------------------------|
E|--------------------------------------------------------------------|

E|-17p14----14----------------------------17----------------------|
B|-------17----17--14--12---14p12-----13^-----14^---12------------|
G|-----------------------------------------------------11----14---|
D|----------------------------------------------------------------|
A|----------------------------------------------------------------|
E|----------------------------------------------------------------|
Tap to rate this tab
# A B C D E F G H I J K L M N O P Q R S T U V W X Y Z