Song name
# A B C D E F G H I J K L M N O P Q R S T U V W X Y Z

Silent Sanctuary - Sayo chords

Sayo - Silent Sanctuary (Monodramatic Album 2013)
Standard Tuning: EADGBE

*Important Reminder* 
      F Chord

e|----1---------------|
B|----1---------------|
G|--------2-----------|
D|-----------3--------|    
A|--------------------|
E|--------------------|

Piano Version Intro:

e|------------------------------------|
B|----------------------13--13-----10-|
G|--10--10--10--12--12---------12-----|
D|---------------------------------7--|
A|--8---------------------------------|
E|------------------------------------|

e|------------------------------10-----|
B|----------------------13--13------11-|
G|--10--10--10--12--12-----------------|
D|----------------------------------7--|
A|--8----------------------------------|
E|-------------------------------------|

Orchestra Version Inro: C - F x2


Verse 1:

     C         F
Minsan oo minsan hindi
     C         F
Minsan tama minsan mali
     C         F
Umaabante, umaatras
     C         F
Kilos mong namimintas
     F          A
Kung tunay nga ang pag-ibig mo
     C          F        
Kaya mo bang isigaw
     C          F    C
Iparating sa mundo


Chorus:

     F        A
Tumingin sa'king mata 
     C        D
Magtapat ng nadarama
     F        A
Di gusto ika'y mawala
     C           F
Dahil handa akong ibigin ka
     C                  C (Break) 
Kung maging tayo sa'yo na ang puso ko


Repeat Intro: C - F x2


Verse 2:

       C          F
Walang ibang tatanggapin
       C          F
Ikaw at ikaw parin
       C          F
May gulo ba sa iyong isipan
       C          F
Di tugma sa nararamdaman
       F                    A - C    
Kung tunay nga ang pag-ibig mo


Chorus:

     F        A
Tumingin sa'king mata 
     C        D
Magtapat ng nadarama
     F        A
Di gusto ika'y mawala
     C           F
Dahil handa akong ibigin ka
     C             C (Break)     
Kung maging tayo


Bridge:

     F           A
Kaylangan ba kitang iwasan
     F               A
Sa tuwing lalapit may paalam
     C          F
Ibang anyo sa karamihan
     A                  C       F       D
Iba rin pag tayo, iba rin pag tayo lang ah


Chorus:

     F        A
Tumingin sa'king mata 
     C        D
Magtapat ng nadarama
     F        A
Di gusto ika'y mawala
     C           F
Dahil handa akong ibigin ka
     C            F      
Kung maging tayo
     C            F      
Kung maging tayo
     C            F
Sa'yo na ang puso ko


Outro:

C - F (Hanggang sa matapos ^_^)

Violin/Cello? Part:

e|--------------------|
B|---11--12--14-------|
G|--------------------|    x4
D|--------------------|    
A|--------------------|
E|--------------------|

e|------------------------------------|
B|----------------------13--13-----10-|
G|--10--10--10--12--12---------12-----|
D|---------------------------------7--|
A|--8---------------------------------|
E|------------------------------------|

e|------------------------------10-----|
B|----------------------13--13------11-|
G|--10--10--10--12--12-----------------|
D|----------------------------------7--|
A|--8----------------------------------|
E|-------------------------------------|

by: MonMon
Tap to rate this tab
# A B C D E F G H I J K L M N O P Q R S T U V W X Y Z