Song name
# A B C D E F G H I J K L M N O P Q R S T U V W X Y Z

Silent Sanctuary - 14 tab

This is the adLib of 14 by Silent Sanctuary. I'm sure about this tab. :)

    PLs. RATE. Thanks. :) . . . Hope you LIKE it.. :D


E||------------------------------------------------------------------------|
B||------8---------8-------------------------------------------------------|
G||4-5-7---7-5-4-5---7--5-4-4h5-------------------7------------------------|
D||-----------------------------5---------5-7-7s9---9-7-5----7-9-7-5-------|
A||-----------------------------------5h7-----------------------------7-5--|
E||------------------------------------------------------------------------|



E||------------------------------10-12--10---8-8p7--------|
B||--------------8-10-10s12-10-8-------------------8-8s10-|
G||----------7h9------------------------------------------|
D||-----5-------------------------------------------------|
A||-5h7---------------------------------------------------|
E||-------------------------------------------------------|



E||--12-12-12---------------------14-14--16-16--14-16-19-|
B||------------------------------------------------------|
G||------------------------------------------------------|
D||------------------------------------------------------|
A||------------------------------------------------------|
E||------------------------------------------------------|



YhEn[SpDrMn]
Tap to rate this tab
# A B C D E F G H I J K L M N O P Q R S T U V W X Y Z