Song name
# A B C D E F G H I J K L M N O P Q R S T U V W X Y Z

Silent Sanctuary - Meron Nang Iba tab

Meron Nang Iba - Silent Sanctuary (Feat. Ashley Gosienfiao)

Intro: (Pakinggan niyo nalang ^.^)

e|---------------------------------------------------|
B|---------------------------------------------------|
G|---------------------------------------------------|
D|---7-.....----4......------------------------------|
A|------------------------------------5...........---|
E|--------------------------7.......-----------------|


Verse 1:
        
Mahirap bang pumili at magpasya

Hindi ba dpat mahal mo'ng nauuna


Pre-chorus:

    Bm       C#m          Dm    
Kaya ngayon di na kita makilala



e|---5----4----5----4----5-----------|
B|----------------------------5------|
G|-----------------------------------|
D|-----------------------------------|
A|-----------------------------------|
E|-----------------------------------|
     C#m - (Do tab)
Kamusta ka na?


Chorus:

  A     C#m     Bm          E
Darating din sa akin malilimutan kita
A       C#m     Bm
Subukan mang pilitin
        E
Baka nga di tayong dal'wa
A       C#m     Bm
Nanlalamig na damdamin
        E
Kay tagal mo kasing nawala
A       C#m     Bm
Sa araw na umuwi ka
        E
Meron na akong iba
A       C#m     Bm      E
Meron na akong iba


Verse 2:

A       C#m     
Apat na buwan 

Bm              
Marami pang hindi 

e|--------------------------------------5-----------------|
B|--------------------------------------5-----------------|
G|--------------------------------------6-----------------|
D|--------------------------------------7-----------------|
A|----5-----7----8------7------5--------7-----------------|
E|--------------------------------------5 Power Chord A---|

                
E
alam


  A     C#m     Bm      E
Pasensya na umalis ng ganun na lang


Pre-chorus:

  Bm            C#m             F#m
Siguro nga hindi ko to napagisipan
        Bm - C# - D - E (Pwede mong gawing octave, basta gets mo na yon XD)
At biglang lumayo


Chorus:

  A     C#m     Bm
Darating din sa akin 
        E
Muling magiging akin ka
  A     C#m     Bm
Subukan mang pilitin
        E
Wag ka munang mawala
  A     C#m     Bm
Nanlalamig na damdamin
        E
Dito'y walang napapala
  A     C#m     Bm
Sa araw na uuwi ka
        E
Meron ka na bang iba?



Bridge:
e|---------------------------------------|
B|---------------------------------------|
G|----6----9----------------Paulit-------|
D|--------------6----7------ulitin-------|
A|---------------------------mo----------|
E|--------------------------lang---------|


        C#m             E               A               
Nasa'n ka nung kailangan ko ang yakap mo
        C#m             E               F# (2 frets after E power chord, 9th Fret 5th string)
Hinanap ang puso mong tanging baon ko
        C#m             E               A
Sa langit magsusulat na ng bagong yugto
   C#m     E    A
Handa kong mag hintay (sumukong maghintay)
   C#m      E      Bm   E
Sinulat sa 'king kamay 


Chorus:

   A    C#m     Bm      E
Hindi ko rin akalain malilimutan kita
   A    C#m     Bm
Subukan mang pilitin
        E
Talagang di tayong dal'wa
   A    C#m     Bm
Napapagod na ang damdamin
        E
Kay tagal mong nawala
   A    C#m     Bm
Sa araw na umuwi ka
        E               A
Meron na akong iba
   C#m          Bm      
Meron ka akong iba
   E            A
Meron ka na bang iba?
   C#m  Bm      E
Meron na akong iba


Outro:

C#m - E - A
C#m - E - A (12th Fret 5th string)
Tap to rate this tab
# A B C D E F G H I J K L M N O P Q R S T U V W X Y Z