Song name
# A B C D E F G H I J K L M N O P Q R S T U V W X Y Z

Silent Sanctuary - Meron Nang Iba tab

                              Meron Nang Iba
               Silent Sanctuary featuring Ashley Gosiengfiao
                            Monodramatic (2013)

Intro:

e|---------------------------------|
B|---------------------------------|
G|---------------------------------|
D|-7-7-7-7-7-7-7-7-7-7-7-7-7-7-7-7-|
A|---------------------------------|
E|---------------------------------|


Verse 1:

First riff:

e|---------------------------------------------------------------|
B|---------------------------------------------------------------|
G|---------------------------------------------------------------| 2x
D|-7-7-7-7-7-7-7-7-4-4-4-4-4-4-4---------------------------------|
A|-------------------------------2-2-2-2-2-2-2-2-5-5-5-5-5-5-5-5-|
E|---------------------------------------------------------------|

           Mahirap ba'ng pumili at magpasya.

           Hindi ba dapat mahal mo'ng mauuna.


Pre-chorus:

           Bm           C#m    F#m7             E-E7-E
   Kaya ngayon 'di na kita makilala. Kamusta ka na?


Chorus 1:

AM7    DM7         Bm         E       AM7
   Darating din sa akin malilimutan kita.
           DM7    Bm          E                  AM7
   Subukan mong pilitin. Baka nga 'di tayong dal'wa.
          DM7       Bm           E                 AM7
   Nanlalamig na damdamin. Kay tagal mo kasing nawala
           DM7   Bm          E         AM7
   Sa araw na umuwi ka meron na akong iba.
         DM7       Bm        E
   Meron na akong iba.


Verse 2:

AM7          F#m7        D            Second riff
   Apat na buwan, marami pa'ng hindi alam.

Second riff:

e|-1-3-3s5-3-1-0-|
B|-3-------------|
G|-2-------------|
D|-0-------------|
A|---------------|
E|---------------|

AM7         F#m7   D              Dm
   Pasensya na, umalis ng ganun nalang.
          Bm            C#m       F#m7                  E-E7-E
   Siguro nga hindi ko ito napag-isipan, at biglang lumayo.


Chorus 2:

AM7    DM7         Bm            E           AM7
   Darating din sa akin muling magiging akin ka
           DM7    Bm             E          AM7
   Subukan mang pilitin. 'Wag ka munang mawala
          DM7       Bm             E          AM7
   Nanlalamig na damdamin. Ito'y walang napapala.
           DM7   Bm           E
   Sa araw na umuwi na, meron ka na bang iba?


Pre-bridge riff:

e|---------0-0-0-0-----------------|
B|-2-2-2-2-------------------------|
G|-2---------------1-1-1-1-2-2-2-2-| 4x
D|-0---------------2-------2-------|
A|-----------------2-------o-------|
E|-----------------0---------------|


Bridge:

     D               E             A
   Nasa'n ka nung kailangan ko ang yakap mo.
     D              E               F#m7-F#m7
   Hinanap ang puso mo, ang tanging baon ko.
      D             E           A
   Sa langit magsusulat na ng bagong yugto.
      D        E     F#m7
   Handa akong maghintay (sumukong maghintay).
     D        E      A-F#m7-A-A   E-E7-E
   Sinulat sa'king kamay.


Chorus 3:

AM7         DM7    Bm         E       AM7
   Hindi ko rin akalain malilimutan kita.
           DM7    Bm         E                   AM7
   Subukan mang pilitin. Talagang 'di tayong dal'wa.
           DM7       Bm           E            AM7
   Napagod na ang damdamin. Kay tagal mong nawala
           DM7   Bm           E         AM7
   Sa araw na umuwi ka, meron na akong iba.
         DM7       Bm        E           AM7
   Meron na akong iba. Meron ka na bang iba?
         DM7       Bm      E
   Meron na akong iba.


Outro chord progression:

   D E A

   D E F#m7

Tabbed by: England Dan C. Estacion (TheHeartfulPianist)

Yahoo! E-mail: theheartfulpianist@yahoo.com
Facebook: facebook.com/shooting.star.of.love.forever
Instagram: theheartfulpianist
Tap to rate this tab
# A B C D E F G H I J K L M N O P Q R S T U V W X Y Z