Song name
# A B C D E F G H I J K L M N O P Q R S T U V W X Y Z

Silent Sanctuary - Ingat Ka tab

this is my first time
I feel it is the right one  ;)


capo 2nd fret

verse 1
E|---------------5-2-------5-5-5-3-2-0--|
B|--------3--3-3-------3-3--------------|
G|-(2)-2--------------------------------|
D|--------------------------------------|
A|--------------------------------------|
E|--------------------------------------|
refrain 1&2
E|-5-5-5--2-0-2------5-5-5-5-5-2-0---------5-3-2-2-3-5-2-0-(0)-|
B|-----------------3-------------------3-3---------------------|
G|-----------------------------------2-------------------------|
D|-------------------------------------------------------------|
A|-------------------------------------------------------------|
E|-------------------------------------------------------------|

chorus
E|-------------------------|
B|--------------0-2--------|
G|--2-2~------------2~-----|
D|--------2~---------------|        2x
A|-------------------------|
E|-------------------------|


E|-------5-5-5-5-2-0---------------5-5-5-5---2-0--------------|
B|--3-3--------------------3-3-3------------------------------|
G|------------------------------------------------------------|
D|------------------------------------------------------------|
A|------------------------------------------------------------|
E|------------------------------------------------------------|

verse 2


E|--------------5-2--------5-5-5-5-5----2-0---------------|
B|-----3--3--3---------3-3------------3-------------------|
G|--2-----------------------------------------------------|
D|--------------------------------------------------------|
A|--------------------------------------------------------|
E|--------------------------------------------------------|

E|----------5--2---------5-5-5-5--2-0-----------------|
B|--3-3-3-3---------3-3-------------------------------|
G|----------------------------------------------------|
D|----------------------------------------------------|
A|----------------------------------------------------|
E|----------------------------------------------------|

refrain 3
E|-5-5-5-2--0-0------5-5-5-5-5--2-0---------------------------|
B|----------------3-------------------------------------------|
G|------------------------------------------------------------|
D|------------------------------------------------------------|
A|------------------------------------------------------------|
E|------------------------------------------------------------|

E|---------5-5--3-2--3--5--2----------------------------------|
B|--3--3------------------------------------------------------|
G|------------------------------------------------------------|
D|------------------------------------------------------------|
A|------------------------------------------------------------|
E|------------------------------------------------------------|


chorus 2nd & last
E|------------------------------------------------------------|
B|--3--3------5----7--3---------3--3------5--7-3--------------|
G|--------2--------------------------2------------------------|
D|------------------------------------------------------------|
A|------------------------------------------------------------|
E|------------------------------------------------------------|

E|-------5-5-5-5--2--0---------5-5-5-5----2--0----------------|
B|--3-3-------------------3-3----------3----------------------|
G|------------------------------------------------------------|
D|------------------------------------------------------------|
A|------------------------------------------------------------|
E|------------------------------------------------------------|

-------------------------end----------------------------------
Tap to rate this tab
# A B C D E F G H I J K L M N O P Q R S T U V W X Y Z