Silent Sanctuary - Bumalik Ka Na Sakin tab

Silent Sanctuary - Bumalik Ka Na Sa Akin (Arranged by J.I.A)

(Finger Style)
CHORDS: D Bm, G, A

TUNING: STANDARD

INTRO:

e-0--2--0-2--2-0--2--0--2--2----3---3---0------------------------------------------|
B-3--3--3-3--3-3--3--3--3--3----3---3---2------------------------------------------|
G-2-----------------------------0---0---2---(strum the A chord 6x)-----------------|
D-0-----0-----------------------0---0---2------------------------------------------|
A--------------2--------2-------2---2---0------------------------------------------|
E-------------------------------3---3----------------------------------------------|

e-0--2--0-2--2-0--2--0--2--2----3---2---0-0-----0-0-------------------------------|
B-3--3--3-3--3-3--3--3--3--3----3---3---3-3-----2-2-------------------------------|
G-2-----------------------------0---------------2-2-------------------------------|
D-0-----0-----------------------0-------------------------------------------------|
A--------------2--------2-------2------------0------------------------------------|
E-------------------------------3---3---------------------------------------------|

e-0--2--0-2--2-0--2--0--2--2----3---2---0-0-----0-0-------------------------------|
B-3--3--3-3--3-3--3--3--3--3----3---3---3-3-----2-2-------------------------------|
G-2-----------------------------0---------------2-2-------------------------------|
D-0-----0-----------------------0-------------------------------------------------|
A--------------2--------2-------2------------0------------------------------------|
E-------------------------------3---3---------------------------------------------|

Magaan na ba ang 'yong paghinga
Bumalik ka na sa'kin
Klaro na ba ang isip sinta
Bumalik ka na sa'kin..

e---------------------------------------------------------------------------------|
B--------3--2--3--2--0------------------------0-----------------------------------|
G--------2--2--2--2--------2--2---------2--2----------2---2-----------------------|
D--0--0--0-----0-----------------0--0------------2----2---2-----------------------|
A-----------------------2-----2--------------------0--0---0-----------------------|
E---------------------------------------3--3--------------------------------------|

e---------------------------------------------------------------------------------|
B--------3--2--3--2--0------------------------0-----------------------------------|
G--------2--2--2--2--------2--2---------2--2----------2---2-----------------------|
D--------0-----0-----------------0--0------------2----2---2-----------------------|
A-----------------------2-----2--------------------0--0---0-----------------------|
E---------------------------------------3--3--------------------------------------|

Hindi ka na nagparamdam
Buhat ng cool off, ako'y nahibang

e------------------------0--------------------------2-0-----0--0--|
B---------3--3-----0--3-------2---0--0--2--3--3----------3-----2--|
G---------0--0-----0--0-------2------------0--0----------------2--|(Strum the A chord 7x)
D--0-0-0-------------------------------------------------------2--|
A--------------------------0--0--------------------------------0--|
E---------3-----3--------------------------3------3---------------|


Chorus:
Sige na please wag nang mainis
Bumalik ka na sa'kin
Sorry mahal, ika'y nasaktan
Bumalik ka na sa'kin

e-0--2--0--2--0--0---2--0--2---------3--2--0--0----0--0--------------------------|
B-3--3--3--3--3--3---3--3--3--3--3---3--3--3--3----2--2--------------------------|
G-2------------------------------------------------2--2--------------------------|
D-0-----0------------------------------------------------------------------------|
A------------------2-----------------------------0----0--------------------------|
E------------------------------------3--3----------------------------------------|

e-0--2--0--2--0--0---2--0--2---------3--2--0--0----0--0--------------------------|
B-3--3--3--3--3--3---3--3--3--3--3---3--3--3--3----2--2--------------------------|
G-2------------------------------------------------2--2--------------------------|
D-0-----0------------------------------------------------------------------------|
A------------------2-----------------------------0----0--------------------------|
E------------------------------------3--3----------------------------------------|

e-------------------0---0------------------------------------------------------|
B--3--3--3---0--0---2---2---3--2-----------------------------------------------|
G--------0---0------2---2------------------------------------------------------|
D-------------------2---2------------------------------------------------------|
A-------------------0---0------------------------------------------------------|
E--------3---3-----------------------------------------------------------------|

Back to Intro..


Then,

e------------------------------------------------------------3---------------------|
B--------3--2--3--2--0-------------------------------0-----3-----------------------|
G--------2--2--2--2--------2--2-------------2--2--2--------------------------------|
D--------0-----0-----------------0--0--0----------------0--------------------------|
A-----------------------2-----2----------------------------------------------------|
E-------------------------------------------3--------------------------------------|

e---------------------------------------------------------------------------------|
B--------3--2--3--2--0------------------------0-----------------------------------|
G--------2--2--2--2--------2--2---------2--2----------2---2-----------------------|
D--------0-----0-----------------0--0------------2----2---2-----------------------|
A-----------------------2-----2--------------------0--0---0-----------------------|
E---------------------------------------3--3--------------------------------------|

e------------------------0--------------------------2-0-----0--0--|
B---------3--3-----0--3-------2---0--0--2--3--3----------3-----2--|
G---------0--0-----0--0-------2------------0--0----------------2--|(Strum the A chord 7x)
D--0-0-0-------------------------------------------------------2--|
A--------------------------0--0--------------------------------0--|
E---------3-----3--------------------------3------3---------------|

Back to Chorus..

Then, Solo part.


e-2--2---2--2----------------------------3----2--2------------------------------|
B-3--3---3--3----3--2-----2--2----3--2------------------------------------------|
G-2--2---4--4-------------0--0---------2----------------------------------------|
D-0--0---4--4------------------------------0-----0------------------------------|
A--------2--2-------------------0----0------------------------------------------|
E----------------------3--3--3--------------------------------------------------|


e-------------------------0--2-0--2--2--5-----------------------------------|
B----3-----------0--3--3----------------------------------------------------|
G-------2-------------------------------------------------------------------|
D----------4--4-------------------------------------------------------------|
A--2----2-----------------0-------0-----2-----------------------------------|
E----------------3--3-------------------------------------------------------|

Huwag mo sana akong ipagpalit
Ikaw at ako na lang ulit

e---------------2----3--2------------------------------------------------|
B--0-3--3----0-------------3--3------------------------------------------|
G------------------------------------------------------------------------|
D------------------------------------------------------------------------|
A--3-------3-------------------------------------------------------------|
E-----------------3-----3------------------------------------------------|

e--2--0-----------------0---0----5--5--5----5--5----------------------------|
B--3----3--3--3--3--0---0---0----2--2--2----2--2----------------------------|
G--------------------------------2--2--2----2--2----------------------------|
D---------------------------------------------------------------------------|
A--2--2------------------------0-0--0-----0-0--0----------------------------|
E-----------------------3---3-----------------------------------------------|

BACK TO CHORUS PART.. THEN END! :)

GOODLUCK AND GODBLESS EVERYONE!!
Tap to rate this tab
 
# A B C D E F G H I J K L M N O P Q R S T U V W X Y Z