Song name
# A B C D E F G H I J K L M N O P Q R S T U V W X Y Z

Silent Sanctuary - Kundiman tab

Title:     Kundiman
Artist:    Silent Sanctuary
Tabbed by: Gilbert C. Bumanlag

Capo on 2nd fret (all chords relative to the capo)

Intro:

E----------------------------------0-----|
B---------------------------2----2--2----|
G------2--------4-2-4-----2-----2--------| 2X
D----0--------2---------0------0---------|
A--2------2/4----------------------------|
E----------------------------------------|

Verse:

E--0--0--0--|
B--0--0--2--|
G--2-–4--2--|
D--0--2--0--|
A--2--4-----|
E-----------|
Para kang asukal...

Refrain:

E--0----0----0----0--|
B--0----0----0----0--|
G--2---–4----2----1--|
D--0----2----0----2--|
A--2----4----2----2--|
E-----------------0--|
Kaya’t ‘wag magtataka...

Chorus:

E--0-0-0--|
B--3-0-0--|
G--2-1–2--|
D--0-2-2--|
A----2-X--|
E----0-2--|
Kundiman tayo...

E--0----0--|
B--3----0--|
G--2----1--|
D--0----2--|
A-------2--|
E-------0--|
Dahil ang tanging...

E--0--0--0--|
B--0--0--2--|
G--2-–4--2--|
D--0--2--0--|
A--2--4-----|
E-----------|
Ay ikaw...

Bridge:

E--0----2----0----|
B--2----2----2----|
G--2---–2----2----|
D--0----0----0----|
A-----------------|
E-----------------|
Bahala na..

E--2~-2----------|
B--2~-2----------|
G--3~-3----4-----|
D--4~-4----4-----|
A--4~-4----2-----|
E--2~-2----------|
Munang magsalita..

E--------------|
B--3----2------|
G--4----2------|
D--5----4------|
A--5----4------|
E--3----2------|

Hayaan na muna natin..

E------------|
B--1----0----|
G--2----1----|
D--3----2----|
A--3----2----|
E--1----0----|
Tadhana..

Instumental:

E--0-0----0-0-0--0-0----0-0----|
B--0-0----0-0-0--0-0----0-0----|
G--6-9----6-4-2--6-9----6-9----|
D--7-9----7-4-2--7-9----7-9----|
A--5-7----5-2-0--5-7----5-7----|
E------------------------------|

E--0-0----0-0-0--0-0----0-0-0--|
B--0-0----0-0-0--0-0----3-5-0--|
G--6-9----6-4-2--6-9----2-4-1--|
D--7-9----7-4-2--7-9----0-X-2--|
A--5-7----5-2-0--5-7----2-4-2--|
E---------------------------0--|

Repeat chorus then end with:

E--0--
B--2--
G--2--
D--0--
A-----
E-----

Ang lupet talaga ng kanta na 'to. Wala kasi akong makitang tamang intro 'tsaka ung may 
kaya gumawa na lang ako. Sigurado ako dito. Hi nga pala kay Angelica!
Tap to rate this tab
 
# A B C D E F G H I J K L M N O P Q R S T U V W X Y Z