Song name
# A B C D E F G H I J K L M N O P Q R S T U V W X Y Z

Silent Stream Of Godless Elegy - Dva Stiny Mam tab

band: Silent Stream of Godless Elegy
www: ssoge.com
album: Návaz
song: Dva stíny mám


Tabbed by : Miroslav Petřek (mira@ssoge.com)

Tempo 1/4 115

Tuning Down D (D G C F A D)

p - palm muting
h - harmonics


Guitar main riff
					
--------------------------------------------|-----------------------------------------|
--------------------------------------------|-----------------------------------------|
--------------------------------------------|-----------------------------------------|
-4-4-4-4-4-4-4-4-4-4-4-4-4-4-4-4-4-4-4-4-4-4|-4-4-4-4-4-4-4-4-4-4-4-2-2-2-2-2-2-2-2-2-|
-4-4-4-4-4-4-4-4-4-4-4-4-4-4-4-4-4-4-4-4-4-4|-4-4-4-4-4-4-4-4-4-4-4-4-4-4-4-4-4-4-2-2-|
-2-2-2-2-2-2-2-2-2-2-2-2-2-2-2-2-2-2-2-2-2-2|-3-3-3-3-3-3-3-3-3-3-3-3-3-3-3-3-3-3-0-0-|

     p p   p p     p p     p p   p p     p p      p p   p p     p p     p p   p p


Guitar riff 2

------------------------------------|-------------------------------|
------------------------------------|-------------------------------|
------------------------------------|-------------------------------|
-4-5-4-4-5-4-4-5-7-4-5-4-4-5-4-4-5-2|-4-4-4-4-5-4-4-4-4-5-4-4-4-5-7-|
-4-5-4-4-5-4-4-5-7-4-5-4-4-5-4-4-5-2|-4-4-4-4-5-4-4-4-4-5-4-4-4-5-7-|
-2-3-2-2-3-2-2-3-5-2-3-2-2-3-2-2-3-0|-2-2-2-2-3-2-2-2-2-3-2-2-2-3-5-|

     p     p           p     p              p   p     p   p 

---------------------------------|
---------------------------------|
---------------------------------|
-4-4-4-4-5-4-4-4-4-5-4-4-4-5-2-4-|
-4-4-4-4-5-4-4-4-4-5-4-4-4-5-2-4-|
-2-2-2-2-3-2-2-2-2-3-2-2-2-3-0-2-|

       p   p     p   p 
    

Guitar riff 3 (dulcimer and violin solo)

---------0---0-------------|
---------0---0-------------|
---------------------------|
-4-4-4-4---5---2-2---------|
-4-4-4-4---5---2-2--7-5----|
-2-2-2-2---3---0-0------2--|

 p p p p   p   p p  h.....



Guitar riff 4 (final)

--------------------------------------------------|----------------------------------------|
--------------------------------------------------|----------------------------------------|
--------------------------------------------------|----------------------------------------|
-44-44-44-44-44-44-44-44-44-44-44-44-22-22-24-2-2-|-4444-4444-4444-4444-5555-5555-5555-522-|
-44-44-44-44-44-44-44-44-44-44-44-44-44-44-44-2-2-|-4444-4444-4444-4444-5555-5555-5555-522-|
-22-22-22-22-22-22-22-22-33-33-33-33-33-33-33-0-0-|-2222-2222-2222-2222-3333-3333-3333-300-|

 p  p  p  p  p  p  p  p  p  p  p  p  p  p  pp
Tap to rate this tab
 
# A B C D E F G H I J K L M N O P Q R S T U V W X Y Z