Guitaretab - guitar tabs
Song name
# A B C D E F G H I J K L M N O P Q R S T U V W X Y Z

Silkstone - Whats The Reason tab

What's the reason - Silkstone

G    = 3-2-0-0-0-3--|
C    = x-3-2-0-1-0--|
D/F# = 2-0-0-2-3-2--|
B7   = 0-2-1-2-0-2--|
Em   = 0-2-2-0-0-0--|
Am   = x-0-2-2-1-0--|
D    = x-5-4-0-3-0--|
Dm   = x-x-0-2-3-1--|
Dm\C = x-3-0-2-3-1--|
Bm   = x-2-0-2-0-2--|
Bm\F#= 2-2-0-2-0-2--|


Intro riff:
   "G"                "D/F#"            "C"                   "D"
e -------------------------------------------------------------------|
B --0-------0-0h1p0-------------0---------------1-------0-1-0---0----|
G ------0-----------2-----2---2-----0-------0-------0-2-------2---0--|
D ----0---0-------------0---0-----4-----0h2---2---2------------------|
A ------------------------------------3-----------------0------------|
E --3-----------------2----------------------------------------------|

G               C            D
Hiding from the blue in your eyes
Bm\F#    Em            Am             C         D
I never told you that I don't need a reason to be in
G             C             D
Love with the smile on your face
B7           Em        Am
Guess I just want you around to keep
   C           D
my feet on the ground

    G                   D\F#
And I Say why can't you tell me
             C
What's the reason
          Am    D        G
Tell me what is on your mind
                D/F#
I try not to be uptight
                C
But I need to know now
          Am        D    G
Tell me what is on your mind

(Intro riff)

G               C            D
Is it something we've got to mend
   Bm\F#            Em    Am
Or should we do it over again
       C              D
Do you need some more time to
G            C         D
Learn how to love in return
B7          Em        Am
If only you gave me a sign
       C           D
Then I know i'd be fine
[ Tab from: http://www.guitaretab.com/s/silkstone/51896.html ]
    G                    D\F#
And I Say why can't you tell me
            C
What's the reason
         Am     D        G
Tell me what is on your mind
               D/F#
I try not to be uptight
                    C
But I need to know now
          Am    D\F#     Em
Tell me what is on your mind

          Bm           G         C
Don't be afraid, it's never too late
                  Am      D/F# Em
But I don't wanna see you hesitate
                 Bm       G              C
It's a matter of time, before you'll be mine
               Am          D/F#       Em
But until that day I won't cross that line
       Dm         Dm\C     C          G      Am
Then life will be so much better for you and me
   B7
Just. let us be


Solo:
e ------------------------------------------------------------|
B -/12~~12----13-12-------------------------------------------|
G ---------/12--------12-14-----------------------11h12-------|
D -------------------------------------11h12h14--------14~~---|
A ---------------------------12h13h14-------------------------|
E ------------------------------------------------------------|

e ------------------------------------------------------------|
B ----------------------12--1312h13p12----15~~~~-------------|
G -11h12-12~~~---12-14------------------14--------------------|
D ------------------------------------------------------------|
A ------------------------------------------------------------|
E ------------------------------------------------------------|

    G                    D\F#
And I Say why can't you tell me
            C
What's the reason
         Am     D        G
Tell me what is on your mind
               D/F#
I try not to be uptight
                    C
But I need to know now
          Am    D\F#     G
Tell me what is on your mind
Related for Whats The Reason tab