Song name
# A B C D E F G H I J K L M N O P Q R S T U V W X Y Z

Silly Wizard - If I Was A Blackbird tab

Intro:

   |Dm|        |Am|                 |Dm|        |Am|
e|-------1-----------0h1-0---|    |-------1-----------0|
B|-----3---3-------1-------1-|    |-----3---3----------|
G|---2-------2---2-----------| x3 |---2-------2---2----|
D|-0-------------------------|    |-0------------------|
A|-------------0-------------|    |-------------0------|
E|---------------------------|    |--------------------|

Verse and Chorus:

   |Dm|        |Am|          |C|        |-|
e|-------1-----------0h1-0---------0----------0h1-0---|
B|-----3---3-------1-------1-----1---1------3-------1-|
G|---2-------2---2-------------0------0---0-----------|
D|-0------------------------------------0-------------|
A|-------------0-------------3------------------------|
E|----------------------------------------------------|


Sorry, I do not know the interlude and outro.
Contact me on egor_chubarov@mail.ru.
Tap to rate this tab
 
# A B C D E F G H I J K L M N O P Q R S T U V W X Y Z