Song name
# A B C D E F G H I J K L M N O P Q R S T U V W X Y Z

Silly - Hurensoehne chords

-------------------------------------------------------------------------------
			     Hurensoehne - Silly
-------------------------------------------------------------------------------
Tabbed by: Gamepixel
Email: -
 
Tuning: Standart

e|6-------------------------------------------------------|
B|6---8---10---8------------------------------------------|
G|7---8---10---8------------------------------------------|
D|8---8---10---8------------------------------------------|
A|6---6---8----6------------------------------------------|
E|--------------------------------------------------------|

repeat this through the whole song
Tap to rate this tab
 
# A B C D E F G H I J K L M N O P Q R S T U V W X Y Z