Song name
# A B C D E F G H I J K L M N O P Q R S T U V W X Y Z

Silski Maciej - Gdy Umiera Dzie324 tab

Utwór 1
             H.           E  E     E  E  E  E  E  E  E  E   
E||-------|------------------2--|--2--1--------------------|
B||-------|---------------------|--------4-----------------|
G||-------|------------------3--|--3--------3--0-----------|
D||-------|------------------4--|-----------------3--1--0--|
A||-------|---------------------|--------------------------|
E||-------|---------------------|--------------------------|


  E  E  E  E  E  S S E  E     E  E  E  E  E  S S E  E   
---------------------------|-----------------3-3-3--1--|
--------------3--3-4-3-----|---------------------------|
--------3---------------3--|--2--0--3--0--0------------|
--L--3-----3---------------|---------------------------|
---------------------------|---------------------------|
---------------------------|---------------------------|


  S  S E   E  S S E  E  E  E       E  E  E  E  E  E  E  E   
-----------1------1-----5--1--|--1g2--1--------------------|
-------1--10----1----8--------|----------4-----------------|
--0s-2--------2---------------|-------------3--0-----------|
------------------------------|-------------------3--1--0--|
------------------------------|----------------------------|
------------------------------|----------------------------|


  E  E  E  E  E  S S E  E       E  S S E  E   E  E  E  S S  
---------------------------|-----------1-----10--8--1--3-3-|
--------------3--3-4-3-----|-------1-3----3----------------|
--------3---------------3--|--0g2--------------------------|
--L--3-----3---------------|-------------------------------|
---------------------------|-------------------------------|
---------------------------|-------------------------------|


  E  Q    E  Q    Q      
--5--3----6--5---------||
-----------------------||
-----------------------||
-----------------------||
-----------------------||
-----------------------||




Tap to rate this tab
 
# A B C D E F G H I J K L M N O P Q R S T U V W X Y Z