Song name
# A B C D E F G H I J K L M N O P Q R S T U V W X Y Z

Silver Jews - The Wild Kindness tab

The Wild Kindess Solo - Silver Jews
American Water (1998)

e|---------------------------------------------------------------|
B|-5-----------------------------------------------------5-8-5---|
G|----4-4---7--5------7-5--5-5-4---4------------------7----------|
D|---------------5-5-------------7---------------5-7-------------|
A|------------------------------------7-7------7-----------------|
E|---------------------------------------------------------------|

e|---------------------------------------------------------------|
B|--8/10--8-5----------------------------------------------------|
G|------------7--7-7-7--7--5-5-5--7-4-------4-4-------4----4-4-4-|
D|----------------------------------------------7-5-7------------|
A|---------------------------------------------------------------|
E|---------------------------------------------------------------|

e|---------------------------------------------------------------|
B|---------------------------------------------------------------|
G|-4-----------------------------4------5-5-4-4------------------|
D|-----7p5h7p5---------5------------7-5---------5-5--------------|
A|------------7--7-7-7---7---7-7---------------------------------|
E|---------------------------------------------------------------|

e|---------------------------------------------------------------|
B|---------------------------------------------------------------|
G|---------------7--5-5--5-5p4-----------------------------------|
D|---------4-5-7---------------5---------------------------------|
A|-----3-5-------------------------------------------------------|
E|-3-7-----------------------------------------------------------|

e|--------------------------------------12-10-10-----------------|
B|----------------------12-10--12-12-10-----------13--12---------|
G|---------------7/9-------------------------------------12------|
D|---------4-5-7-------------------------------------------------|
A|-----3-5-------------------------------------------------------|
E|-3-7-----------------------------------------------------------|

e|---------------------------------------------------------------|
B|----12--12-13-12-12-------12\----------------------------------|
G|-12------------------------------------------------------------|
D|---------------------------------------------------------------|
A|---------------------------------------------------------------|
E|---------------------------------------------------------------|

| /  slide up
| \  slide down
| h  hammer-on
| p  pull-off
| ~  vibrato
| +  harmonic
| x  Mute note
Tap to rate this tab
# A B C D E F G H I J K L M N O P Q R S T U V W X Y Z