Song name
# A B C D E F G H I J K L M N O P Q R S T U V W X Y Z

Silver Jews - Wild Kindness tab

[will have to fill in some of the slides and hammer-ons and pulls yourself - below is 
the basics]
(/) Slide Up  (\) Slide Down

E|-------------------------------------------------------------3-----5--3--------------------|
B|--5----------------------------------------------------3--5-----5--------5--3--3--3--3--3--|
G|-----4--7--5-----7--5--5--5--4-------------------------------------------------------------|
D|--------------5-----------------7--7/9-----------5--7--------------------------------------|
A|----------------------------------------7--7--7--------------------------------------------|
E|-------------------------------------------------------------------------------------------|

E|-------------------------------------------------------------------------------------------|
B|-------------------4--4-----------4--4--4--------------------------------------4--4--------|
G|--5--5--5--5/7--4--4--4-----------4--4--4--------------------------------------4--4--------|
D|-------------------------7--5--7-----------7--5--7--5--------------------------------7--5--|
A|-------------------------------------------------------7--7--7--7--5--7--7--7--------------|
E|-------------------------------------------------------------------------------------------|

E|------------------------------------------------------------------------------------------|
B|------------------------------------------------------------------------------------------|
G|--5--5--4--4--------------------------7--5--5--5--5--5\4--------------------------7/9--9--|
D|--------------5--------------4--5--7----------------------5--------------4--5--7----------|
A|--------------------2--3--5-------------------------------------2--3--5-------------------|
E|-----------------3-------------------------------------------3----------------------------|

E|----------------------12--10--10---------------------------------------------|
B|--12--10--12--12--10--------------13--12------------------12--12/13--12--12--|
G|------------------------------------------12--12--12--12---------------------|
D|-----------------------------------------------------------------------------|
A|-----------------------------------------------------------------------------|
E|-----------------------------------------------------------------------------|
[/code]
[url]http://www.guitartabcreator.com[/url]
Tap to rate this tab
 
# A B C D E F G H I J K L M N O P Q R S T U V W X Y Z