Guitaretab - guitar tabs
Song name
# A B C D E F G H I J K L M N O P Q R S T U V W X Y Z

Silver Jews - Night Society tab

Night Society
Silver Jews

e|---------------------------------------------- |   \
B|-----------------------------------------   -- |
G|-----------------------------------------   -- |
D|---------5---------7---------5-----------   -- |
A|-5-7-5-7---5-7-5-7---5-7-5-7---5-7-5-7-5-   -- |
E|---------------------------------------------- |     \
					         > x2
e|---------------------------------------------- |     /
B|-----------------------------------------   -- |
G|-----------------------------------------   -- |
D|-----------------------------------------   -- |
A|-5-7-5-7---5-7-5-7---5-7-5-7---5-7-5-7---   -- |
E|---------8---------8---------8---------8------ |   /

e|------------------------------------------------------|
B|-------8-------8-----10-8-------8---------------13~~~-|
G|-9-7-9---9-7-9---9-7------9-7-9---9-7-9-7-9-----------|
D|----------------------------------------------10------|
A|------------------------------------------------------|
E|------------------------------------------------------|

e|------------------------------------------------------------|
B|-------8-----10-8-------8-----10-8-------8------------------|
G|-9-7-9---9-7------9-7-9---9-7------9-7-9---9-7-9-7~~--19~~~-|
D|------------------------------------------------------------|
A|------------------------------------------------------------|
E|------------------------------------------------------------|


e|-----------------------------------------|
B|-----------------------------------------|
G|-----------------------------------------|
D|---------5---------7---------5-----------|
A|-5-7-5-7---5-7-5-7---5-7-5-7---5-7-5-7-5-|
E|-----------------------------------------|

e|-----------------------------------------|
B|-----------------------------------------|
G|-----------------------------------------|
D|-----------------------------------------|
A|-5-7-5-7---5-7-5-7---5-7-5-7---5-7-5-7---|
E|---------8---------8---------8---------8-|

e|----------------------------------|
B|----------------------------------|
G|----------------------------------|
D|-------5-----7-5-------5------7-5-|
A|-7-5-7---7-5------7-5-7---7-5-----|
E|----------------------------------|
[ Tab from: http://www.guitaretab.com/s/silver-jews/79680.html ]
e|---------------------------------|
B|---------------------------------|
G|---------------------------------|
D|-----7-5-------5-------5-------5-|
A|-7-5-----7-5-7---7-5-7---7-5-7---|
E|---------------------------------|


"solo"
e|----------|
B|----------|
G|-7--9~~~--|
D|----------|
A|----------|
E|----------|


e|-----------------------------------------------------|
B|-----------------------------------------------------|
G|---------5---------7---------5-----------------------|
D|-5-7-5-7---5-7-5-7---5-7-5-7---5-7-5-7-5--5-7-5-7----|
A|--------------------------------------------------7--|
E|-----------------------------------------------------|


half speed
e|---------------------------------------------------|
B|--------8-----------10b12-----------8--------------|
G|-9-7-9----9-7-9-7-9-------9-7-9-7-9---9-7-9-7-9----|
D|------------------------------------------------10-|
A|---------------------------------------------------|
E|---------------------------------------------------|

e|------------------------------------------------|
B|-----------8-----------?b?----------------------|
G|-9-7-9-7-9---9-7-9-7-9-----9-7-9-7s5--9-7-9-7s5-|
D|------------------------------------------------|
A|------------------------------------------------|
E|------------------------------------------------|


full speed
e|------------------------------------------|
B|---------8---------10---------8-----------|
G|-7-9-7-9---7-9-7-9----7-9-7-9---7-9-7-9-7-|
D|------------------------------------------|
A|------------------------------------------|
E|------------------------------------------|

e|---------------------------------------------|
B|---------------------------------------------|
G|-7-9-7-9----7-9-7-9----7-9-7-9----7-9-7-9----|
D|---------10---------10---------10---------10-|
A|---------------------------------------------|
E|---------------------------------------------|


e|------------------------------------------------- |
B|-------8-----10-8-------8-----10-8--(10-8-------- | x 12
G|-9-7-9---9-7------9-7-9---9-7-------------------- |
D|------------------------------------------------- |
A|------------------------------------------------- |
E|------------------------------------------------- |

then just go crazy with a solo I guess, the song fades out after that.
Related for Night Society tab
×
Night Society