Song name
# A B C D E F G H I J K L M N O P Q R S T U V W X Y Z

Silver - Dark Side Of The Light tab

Silver
The Dark Side of the Light
Album: White Diary

 (00:00-00:07)

e|---------------------------------------------------------------------------------|
B|---------------------------------------------------------------------------------|
G|---------------------------------------------------------------------------------|
D|---------------------------------------------------------------------------------|
A|---------------------------------------------------------------------------------|
E|--1/11~~~--lots of feedback------------------------------------------------------|


 (00:08-00:24) (02:24-02:39)

e |------------------------------------------------------------------------------|
B |------------------------------------------------------------------------------|
G |------------------------------------------------------------------------------|
D |-------------------------4---------8----8b10r8---6---4--6--4------------------|
A |----6--------4-------6------------------------------------------------8--6----|
E |-----------------6------------------------------------------------------------|

 (00:25-00:38)

e |---------------------------------------------------------------------------------|
B |---------------------------------------------------------------------------------|
G |---------------------------------------------------------------------------------|
D |-----4---------------------------------------4-------8-------6-------------------|
A |--------------------------------------6---------------------------8---6----------|
E |------------6-------6b----6-----4------------------------------------------------|

 (01:07-01:23) (02:08-02:23)

e|-----------------------------------------------------|  |--------------------------------|
B|-----------------------------------------------------|  |--------------------------------|
G|------------------------------6----------------------|  |--------------------------------|
D|----4-----6-----4-----6b8---------8r6-----4---6----4-|x3|--4---6----4----6b8r6p4------4--|
A|-----------------------------------------------------|  |-------------------------6------|
E|-----------------------------------------------------|  |--------------------------------|

  (02:39-02:54)

e|-----------------------------------------------------|
B|-----------------------------------------------------|
G|------------------------------6----------------------|
D|----4-----6-----4-----6b8---------8r6-----4---6----4-|x3
A|-----------------------------------------------------|
E|-----------------------------------------------------|

e|-------------------------------------------------------------|
B|-------------------------------------------------------------|
G|-------------------------------------------------------------|
D|---------4---------8----8b10r8---6---4--6--4-----------------|
A|----6------------------------------------------------8--6----|
E|-------------------------------------------------------------|

  (02:55-03:35)

e |---------------------------------------------------------|-------------------------|
B |---------------------------------------------------------|-------------------------|
G |---------------------------------------------------------|-------------------------|
D |-----4---------------------------------------4-------8---|-8b10r8--6--4--6--4------|
A |-6------------------------------------6------------------|---------------------8---|
E |------------6-------6b----6-----4------------------------|-------------------------|

e |---------------------------------------------------------|---------------------------|
B |---------------------------------------------------------|---------------------------|
G |---------------------------------------------------------|---------------------------|
D |-----4---------------------------------------4-------8---|-6b---8---4~~--------------|
A |-6------------------------------------6------------------|----------------end-on--6--|
E |------------6-------6b----6-----4------------------------|---------------------------|
Tap to rate this tab
# A B C D E F G H I J K L M N O P Q R S T U V W X Y Z