Song name
# A B C D E F G H I J K L M N O P Q R S T U V W X Y Z

Silverbullit - Grasshopper tab

-------------------------------------------------------------------------------
		GRASSHOPPER - Silverbullit / Citizen Bird
-------------------------------------------------------------------------------

Tabbed by: Filip Mesko
Email: filip DOT mesko AT gmail DOT com

Tuning: E A D G B e (standard)


An E chord is strummed the whole song:
       
e |---0---|
B |---0---|
G |---9---|
D |---9---|
A |---7---|
E |---0---|


During the intro and the verses this is played (with tremolo picking):

e |-------------------|---------------------|
B |-------------------|---------------------|
G |---4---2---1-------|-----------1---------|
D |-------------------|---2---4-------------|
A |-------------------|---------------------|
E |-------------------|---------------------|

e |-------------------|---------------------|
B |-------------------|---------------------|
G |-------------------|---------------------|
D |-----------2-------|---4---6-------------|
A |---2---4-----------|-----------4---------|
E |-------------------|---------------------|

e |-------------------|
B |-------------------|
G |-------1-----------|
D |---4-------2-------|
A |-------------------|
E |-------------------|


Towards the end, play around with these three progressions:

e |-------------------|
B |-------------------|
G |-------------------|
D |---9---7---6---7---|
A |-------------------|
E |-------------------|

e |-------------------|
B |-------------------|
G |-------------------|
D |---7-6-7-6-7-6-----|
A |-------------------|
E |-------------------|

e |-------------------|
B |-------------------|
G |-------------------|
D |---6-4-6-4-6-4-----|
A |-------------------|
E |-------------------|



Good luck!
Please e-mail or comment suggestions etc...

http://www.silverbullit.se/

| ^  bend
| /  slide up
| \  slide down
| h  hammer-on
| p  pull-off
| ~  let ring
| +  harmonic
| x  Mute note
===============================================================================
Tap to rate this tab
# A B C D E F G H I J K L M N O P Q R S T U V W X Y Z