Guitaretab - guitar tabs
Song name
# A B C D E F G H I J K L M N O P Q R S T U V W X Y Z

Silverchair - Young Modern tab

1. Young Modern Station
2. Straight Lines
3. If You Keep Losing Sleep
4. Reflections Of A Sound
5. Those Thieving Birds (Part 1) / Strange Behaviour / Those Thieving Birds (Part 2)
6. The Man That Knew Too Much
7. Waiting All Day
8. Mind Reader
9. Low
10. Insomnia
11. All Across The World

---------------------------------------------------------------------
1. Young Modern Station (Standard Tuning EADGBE)


B7  Em  G#m  Em


   C             Em
|---------------------------------|
|---------------------------------|
|---------------------------------|
|---------------------------------|
|-----------------------------2---|
|-----8-----8\--0-----0---0-3---3-|  x3
Stalled at Young Modern Station, arthritic conversation, life has a deadline lately


G#           D#      G#    D#
Allergic and in the news


   C             Em
|---------------------------------|
|---------------------------------|
|---------------------------------|
|---------------------------------|
|-----------------------------2---|
|-----8-----8\--0-----0---0-3---3-|  x3
The clocks are ticking timeless, dead dali days behind us, the band is back together


G#           D#      G#    D#
Allergic and in the news


B7                  Em                       G#m           Em
Does it make you cry when I make you feel so far away, the interview's over


B7                   Em
Stuck to the goal to rescue my skin


   C             Em                C             Em
|-----------------------------------------------------------------|
|-----------------------------------------------------------------|
|-----------------------------------------------------------------|
|-----------------------------------------------------------/12---|
|-----------------------------------------------------------------|
|-----------------------------------------------------------------|


   C             Em
|---------------------------------|
|---------------------------------|
|---------------------------------|
|---------------------------------|
|-----------------------------2---|
|-----8-----8\--0-----0---0-3---3-|  x3
I need a different liquor, so sick of getting sicker, well I'm moving back to the country


G#           D#      G#    D#
Allergic and in the news


B7                  Em                       G#m           Em
Does it make you cry when I make you feel so far away, the interview's over


B7                   Em                        G#m           Em
Stuck to the goal to rescue my skin, you're so far away, the interview's over


   B7
|-----------------------------------------------------------------|
|-----------------------------------------------------------------|
|-----------------------------------------------------------------|
|-----------------------------------------------------------------|
|-------------------------------------------------------------/14-|
|-----------------------------------------------------------------|
He dreams of tracks and choices, I think I'm hearing voices


   C             Em                C             Em
|-----------------------------------------------------------------|
|-----------------------------------------------------------------|
|-----------------------------------------------------------------|
|-----------------------------------------------------------------|
|-----------------------------2-------------------------------2---|
|-----8-----8\--0-----0---0-3---3-----8-----8\--0-----0---0-3---3-|


   C             Eb
|-----------------------3-3-3-3-3-|
|---------------4-----------------|
|-------------------3-------------|
|---------------------------------|
|---------------------------------|
|-----8-----8\--------------------|


   C             Em                C             Em
|-----------------------------------------------------------------|
|-----------------------------------------------------------------|
|-----------------------------------------------------------------|
|-----------------------------------------------------------------|
|-----------------------------2-------------------------------2---|
|-----8-----8\--0-----0---0-3---3-----8-----8\--0-----0---0-3---3-|


   C             Eb
|-----------------------3-3-3-3-3-2-|
|---------------4-------------------|
|-------------------3---------------|
|-----------------------------------|
|-----------------------------------|
|-----8-----8\----------------------|


B7                  Em                       G#m           Em
Does it make you cry when I make you feel so far away, the interview's over


B7                   Em                        G#m           Em
Stuck to the goal to rescue my skin, you're so far away, the interview's over


B7                  Em                       G#m           Em
Does it make you cry when I make you feel so far away, the interview's over

---------------------------------------------------------------------

2. Straight Lines (Standard Tuning EADGBE)


Ab Ab Ab Ab...


Ab                                     Gb
Breathing from a hole in my lung I had no one


    Ab
But faces in front of me racing through the void in my head


        Gb          Bbm            Fm
To find traces of a good luck academy


           Gb       Db           Ab
Oo-ooh, oo-ooh, oo-ooooh, oo-oo-ooooh


Ab                                              Gb
Sparkes ignite and trade them for thought about no one


    Ab
And nothing in particular washed the sickened socket and drove


       Gb               Bb                  Fm
Resent nothing, there's good will inside of me


           Gb       Db           Ab
Oo-ooh, oo-ooh, oo-ooooh, oo-oo-ooooh


Ab         Abm       Bbm Fm
Wake me up lower the fever


Eb           Db        Ab
Walking in a straight line


Ab        Abm         Bbm   Fm
Set me on fire in the evening


Eb            Db  Ab
Everything'll be fine


Ab        Abm           Bbm   Fm
Waking up strong in the morning


Eb           Db        Ab
Walking in a straight line


Ab           Abm       Bbm    Fm
Lately I'm a desperate believer


Eb               Db        Ab
But walking in a straight line


   Ab              Ab              Gb
|-------------------------------------------------|
|-----------------------4---------------2---------|
|-------5-------------------5---------------------|
|-----6---------------6---------------4-----------|
|---6---------------6---------------4-------------|
|-4---------------4---------------2---------------|
Something that I'll never forget, I felt desperate


   Ab              Ab              Ab
|-------------------------------------------------|
|-------4-------------------------------4---------|
|-----------5-----------5-------------------5-----|
|-----6---------------6---------------6-----------|
|---6---------------6---------------6-------------|
|-4---------------4---------------4---------------|
And stuck to the marrow invisible to everyone else


   Gb              Bbm             Fm
|-----------------------1---------------4---------|
|-------2-------------------2---------1-----------|
|---------------------3-------------1-------------|
|-----4-------------3-----------------------------|
|---4-------------1-------------------------------|
|-2-------------------------------1---------------|
I'm a sex change, and a damsel with no heroine


   Fm              Gb              Db
|-------4---------------4---------------4-------4-------4---------|
|-----1---------------2-------------------------------------------|
|---1---------------1-----------------6-------6-------6-------6---|
|-----------------------------------6-----------------------------|
|---------------------------------4-------------------------------|
|-1---------------2-----------------------------------------------|
Oo-oo-ooh,     oo-ooh,         oo-ooooh


Ab         Abm       Bbm Fm
Wake me up lower the fever


Eb           Db        Ab
Walking in a straight line


Ab        Abm         Bbm   Fm
Set me on fire in the evening


Eb            Db  Ab
Everything'll be fine


Ab        Abm           Bbm   Fm
Waking up strong in the morning


Eb           Db        Ab
Walking in a straight line


Ab           Abm       Bbm    Fm
Lately I'm a desperate believer


Eb               Db        Ab
But walking in a straight line


                Bb
I don't need no time to say


Ab                      Bb
    There's no changing yesterday


   Ab                                    Db
If we keep talking and I keep walking in straight lines


   Db7
|-------------------13----13----------------------|
|-------------12--------12------------------------|
|-------13----------------------------------------|
|-------------------------------------------------|
|-------------------------------------------------|
|-------------------------------------------------|


Ab Abm Bbm Fm   Eb Db Ab


Ab         Abm       Bbm Fm
Wake me up lower the fever


Eb           Db        Ab
Walking in a straight line


Ab        Abm         Bbm   Fm
Set me on fire in the evening


Eb            Db  Ab
Everything'll be fine


Ab        Abm           Bbm   Fm
Waking up strong in the morning


Eb           Db        Ab
Walking in a straight line


Ab           Abm       Bbm    Fm
Lately I'm a desperate believer


Eb               Db        Ab
But walking in a straight line


Ab Ab Ab Ab...


---------------------------------------------------------------------

3. If You Keep Losing Sleep (Standard Tuning EADGBE)

Note: In the verses I wrote B and B minor, but he actually plays a 7x446x chord shape 
of
      them, since there isn't a term for that chord that's short enough to write over 
lines
      (and for the intro and outro he plays x234xx instead of B5).

|-x-x-x-x-x-x-x-x-x-x-x-x-|
|-x-x-x-x-x-x-x-x-x-x-x-x-|
|-x-x-x-x-x-x-x-x-x-x-x-x-|
|-x-x-x-x-x-x-x-x-x-x-x-x-|
|-x-x-x-x-x-x-x-x-x-x-x-x-|
|-x-x-x-x-x-x-x-x-x-x-x-x-|


B5                                                  C#5
Oh-oh, oh-oh, oh, oh-oh-oh-oh-oh, oh-oh, oh-oh, oh


B5                                                  C#5
Oh-oh, oh-oh, oh, oh-oh-oh-oh-oh, oh-oh, oh-oh, oh


B                  Bm                       B                  Bm
If you keep losing sleep over other lovers, if you keep losing me


       C#m      F#m    D    F#m    D    F#m    D    F#m    E
You're gonna be bored


B                    Bm                         B                    Bm
If you're up chimney sweep under rubble covers, if you keep counting sheep


    C#m    F#m    D    F#m    D    F#m    D    F#m    E
And being adored


         D                F#m          D           A
You're a tombstone in the mud, playing twister in a bubble


 E A Bb E
Agaaaaaaain


   E               Bm              C               F#
|-----------------------------------------------------------------|
|-----------------------------------------------------------------|
|---------------------------------0-------2-------3---------------|
|-2-----------2-4-------------4-----------------------------------|
|-----------------2-----------------------------------------------|
|-----------------------------------------------------------------|
I need a breath, a wind so pure


   A               G               D               D       C#m
|-----------------------------------------------------------------|
|-----------------------------------------------------------------|
|-2-----------2-4-0-------0-----2---------------------------------|
|---------------------------------4-2-0-----------0---------------|
|---------------------------------------------------------4-------|
|-----------------------------------------------------------------|
To dry up the mud over me


   E               Bm              C               F#
|-----------------------------------------------------------------|
|-----------------------------------------------------------------|
|-----------------------------------------------------------------|
|-2-----------2-4-------------------------------------------------|
|-----------------2-----------------------0-----------------------|
|-----------------------------2-2-3---------------2---------------|
To be reborn, not born again


   A               G               D               D       C#m
|-----------------------------------------------------------------|
|-----------------------------------------------------------------|
|-2-----------2-4-0-------0-----2---------------------------------|
|---------------------------------4-2-0-----------0---------------|
|---------------------------------------------------------4-------|
|-----------------------------------------------------------------|
Erase my regret from the start

Palm mute:


   Bm              Bm              C               F#
|-----------------------------------------------------------------|
|---------3---------------3---------------5-----------------------|
|-------------------------------------------------------------4---|
|-----4---------------4---------------5-------------------4-------|
|-2---------------2---------------3-------------------4-----------|
|-------------------------------------------------2---------------|
Shot the model, flaking temporary skin


   A               G               D               D       C#m
|-----------------------------------------------------------------|
|-------------------------3---------------------------------------|
|-----------------------------------------7---------------6-------|
|---------7---------------------------7---------------7-----------|
|-----7---------------5-----------5---------------5---------------|
|-5---------------3-----------------------------------------------|
You're no burden, you're no burden


   Bm              Bm              C               F#
|-----------------------------------------------------------------|
|---------3---------------3---------------5-----------------------|
|-------------------------------------------------------------4---|
|-----4---------------4---------------5-------------------4-------|
|-2---------------2---------------3-------------------4-----------|
|-------------------------------------------------2---------------|
Such reduction, such seductive silent wine


   A               G               D               D       C#m
|-----------------------------------------------------------------|
|-------------------------3----------------------------------0----|
|-----------------------------------------7-----------------------|
|---------7---------------------------7-------------------7-------|
|-----7---------------5-----------5-------------------5-----------|
|-5---------------3-------------------------------5---------------|
Hopscotch trigger, trigger

(Orchestrals, drums)

If you keep losing sleep over other lovers, if you keep losing me, are you gonna be

If you're up chimney sweep under rubble covers, if you keep losing me


F#m    D    F#m    D    F#m    D    F#m    E

         D                F#m          D           A
You're a tombstone in the mud, playing twister in a bubble


 E A Bb E
Agaaaaaaain


B                  Bm                       B                  Bm         C#m
If you keep losing sleep over other lovers, if you keep losing me, you're gonna be


B                                                                      C#m
If you keep losing sleep over other lovers, if you keep losing me, ah, ah, ah


B5                                                                C#5
Woo-ooh, oo-ooh, ooh, woo-oo-oo-oo-ooh, woo-ooh, oo-ooh, ooh, woo-oo-oo-oo-ooh


B5                                                                C#5
Woo-ooh, oo-ooh, ooh, woo-oo-oo-oo-ooh, woo-ooh, oo-ooh, ooh, woo-oo-oo-oo-ooh

 ---------------------------------------------------------------------

4. Reflections Of A Sound (Standard Tuning)

        C                       F              G
In the sun we are found to be reflections of a sound


F                      G                      Em
     I know it's been far too long in stormy weather


      Am                        F
My arrested hope won't choke forever


       Fm             C            C7
Like a memory needing never


F            G
     We walk wrapped in thought


         Em                Am
Some are vacant, some have grown too short


         F               Fm                     C             G
It's the only thing I've ever had that keeps me lonely


        C                       F              G
In the sun we are found to be reflections of a sound


     E           Em
When nobody is around


        C                       F              G
In the sun we are found to be reflections of a sound


     E           Em
When nobody is around


F                      G
    Come down from the waist of time


        Em           Am
Feel so empty when I feel so fine


         F             Fm                       C           G
Starting over we could change this light shadow sober


   G   F#m F                          Fm
|---------------------------------------------------|
|---------------------------------------------------|
|---------------------------------------------------|
|---------------------------------------------------|
|---------------------------------------------------|
|-3---2---1-----------------------------------------|
                I've been waiting for far too long


                C                      E          E
|---------------------------------------------------|
|---------------------------------------------------|
|---------------------------------------------------|
|---------------------------------------------------|
|-------------------------------------7-------------|
|--------------1/8----------------------------------|
   Let's stick together, 'cause you're keeping me warm


              F               G
|----------------------------3-3-3-3-3--------------|
|----------------------------3-3-3-3-3--------------|
|----------------------------4-4-4-4-4--------------|
|----------------------------5-5-5-5-5--------------|
|------------5---------------5-5-5-5-5--------------|
|----------------------------3-3-3-3-3--------------|
   But it's a lonely setting sun

        C                       F              G
In the sun we are found to be reflections of a sound


     E           Em
When nobody is around


        C                       F              G
In the sun we are found to be reflections of a sound


     E           Em
When nobody is around


E   E  C  C  B       B              Am
   I wait so long, now my head is full of pressure


E       E  C        C     B           B                 Fma7    Em   E7
  I need time to cure my mind, it's like a loop that lasts forever

   F                       Fm
|---------------------------------------------------|
|---------------------------------------------------|
|---------------------------------------------------|
|---------------------------------------------------|
|---------------------------------------------------|
|-1----------------------/4-------------------------|
      I've been waiting for far too long


                C                      E          E
|---------------------------------------------------|
|---------------------------------------------------|
|---------------------------------------------------|
|---------------------------------------------------|
|-------------------------------------7-------------|
|--------------4/8-----3h5---7h8--------------------|
   Let's stick together, 'cause you're keeping me warm


              F               G
|----------------------------3-3-3-3-3--------------|
|----------------------------3-3-3-3-3--------------|
|----------------------------4-4-4-4-4--------------|
|----------------------------5-5-5-5-5--------------|
|------------5---------------5-5-5-5-5--------------|
|----------------------------3-3-3-3-3--------------|
   But it's a lonely setting sun

        C                       F              G
In the sun we are found to be reflections of a sound


     E           Em
When nobody is around


        C                       F              G
In the sun we are found to be reflections of a sound


     E           Em
When nobody is around


        C                       F              G
In the sun we are found to be reflections of a sound


    E       Em
For nobody


        C                       F              G
In the sun we are found to be reflections of a sound


    E       Em
For nobody


F         G                   Em              Am
  Oo-ooh, ooh ooh ooh, oo-ooh ooh ooh, oo-ooh ooh ooh oooh


       F              Fm                 C
Oo-ooh oo-ooh, oo-ooh oo-ooh ooh, oo-ooh oo-ooh

 ---------------------------------------------------------------------

5. Those Thieving Birds (Part 1) / Strange Behaviour / Those Thieving Birds (Part 2)


(Standard Tuning with Capo on fourth fret)

    C#9                     Eadd9
|-------------------------------------------------------------------------|
|-------0-----------0-----------3-----------3-----------3-----------3-----|
|-----0---0-------0---0-------0---0-------0---0-------0---0-------0---0---|
|---2-------2---2-------2---2-------2---2-------2---2-------2---2-------0-|
|-0-----------4-----------3-----------3-----------3-----------3-----------|
|-------------------------------------------------------------------------|

    F#7                     Badd9       B           Eadd9
|-------------------------------------------------------------------------|
|-------1-----------1-----------0-----------0-----------3-----------3-----|
|-----2---2-------2---2-------2---2-------0---0-------0---0-------0---0---|
|---0-------0---0-------0---0-------0---0-------0---2-------2---2-------2-|
|-------------------------------------2-----------3-----------3-----------|
|-2-----------2-----------3-----------------------------------------------|

    C#9                     Eadd9
|-------------------------------------------------------------------------|
|-------0-----------0-----------3-----------3-----------3-----------3-----|
|-----0---0-------0---0-------0---0-------0---0-------0---0-------0---0---|
|---2-------2---2-------2---2-------2---2-------2---2-------2---2-------0-|
|-0-----------4-----------3-----------3-----------3-----------3-----------|
|-------------------------------------------------------------------------|
Those thieving birds


    F#7                     Badd9       B           Eadd9
|-------------------------------------------------------------------------|
|-------1-----------1-----------0-----------0-----------3-----------3-----|
|-----2---2-------2---2-------2---2-------0---0-------0---0-------0---0---|
|---0-------0---0-------0---0-------0---0-------0---2-------2---2-------2-|
|-------------------------------------2-----------3-----------3-----------|
|-2-----------2-----------3-----------------------------------------------|
Hang strung from an empty nest


    C#9                     Eadd9
|-------------------------------------------------------------------------|
|-------0-----------0-----------3-----------3-----------3-----------3-----|
|-----0---0-------0---0-------0---0-------0---0-------0---0-------0---0---|
|---2-------2---2-------2---2-------2---2-------2---2-------2---2-------0-|
|-0-----------4-----------3-----------3-----------3-----------3-----------|
|-------------------------------------------------------------------------|
This swan-plagued pond


    F#7                     Badd9       B           Eadd9
|-------------------------------------------------------------------------|
|-------1-----------1-----------0-----------0-----------3-----------3-----|
|-----2---2-------2---2-------2---2-------0---0-------0---0-------0---0---|
|---0-------0---0-------0---0-------0---0-------0---2-------2---2-------2-|
|-------------------------------------2-----------3-----------3-----------|
|-2-----------2-----------3-----------------------------------------------|
Forsaken and underwhelmed


    C#9                     Eadd9
|-------------------------------------------------------------------------|
|-------0-----------0-----------3-----------3-----------3-----------3-----|
|-----0---0-------0---0-------0---0-------0---0-------0---0-------0---0---|
|---2-------2---2-------2---2-------2---2-------2---2-------2---2-------0-|
|-0-----------4-----------3-----------3-----------3-----------3-----------|
|-------------------------------------------------------------------------|
Those leaving words


    F#7                     Badd9       B           Eadd9
|-------------------------------------------------------------------------|
|-------1-----------1-----------0-----------0-----------3-----------3-----|
|-----2---2-------2---2-------2---2-------0---0-------0---0-------0---0---|
|---0-------0---0-------0---0-------0---0-------0---2-------2---2-------2-|
|-------------------------------------2-----------3-----------3-----------|
|-2-----------2-----------3-----------------------------------------------|
Hang strong from an emptiness


    C#9                     Eadd9
|-------------------------------------------------------------------------|
|-------0-----------0-----------3-----------3-----------3-----------3-----|
|-----0---0-------0---0-------0---0-------0---0-------0---0-------0---0---|
|---2-------2---2-------2---2-------2---2-------2---2-------2---2-------0-|
|-0-----------4-----------3-----------3-----------3-----------3-----------|
|-------------------------------------------------------------------------|

    F#7                     Badd9       B           Eadd9
|-------------------------------------------------------------------------|
|-------1-----------1-----------0-----------0-----------3-----------3-----|
|-----2---2-------2---2-------2---2-------0---0-------0---0-------0---0---|
|---0-------0---0-------0---0-------0---0-------0---2-------2---2-------2-|
|-------------------------------------2-----------3-----------3-----------|
|-2-----------2-----------3-----------------------------------------------|
Hang strung from an empty nest


    C#9                     Eadd9                   Emadd9
|-------------------------------------------------------------------------|
|-------0-----------0-----------3-----------3-----------3-----------3-----|
|-----0---0-------0---0-------0---0-------0---0-------0---0-------0---0---|
|---2-------2---2-------2---2-------2---2-------2---1-------1---1-------0-|
|-0-----------4-----------3-----------3-----------3-----------3-----------|
|-------------------------------------------------------------------------|
And those thieving birds


    F#7                     Badd9       B           Emadd9
|-------------------------------------------------------------------------|
|-------1-----------1-----------0-----------0-----------3-----------3-----|
|-----2---2-------2---2-------2---2-------0---0-------0---0-------0---0---|
|---0-------0---0-------0---0-------0---0-------0---1-------1---1-------1-|
|-------------------------------------2-----------3-----------3-----------|
|-2-----------2-----------3-----------------------------------------------|
Hang strung from and empty nest


    Eadd9
|-------------------------|
|-------3-----------3-----|
|-----0---0-------0---0---|
|---2-------2---2-------2-|
|-3-----------3-----------|
|-------------------------|

    C#9                     Eadd9
|-------------------------------------------------------------------------|
|-------0-----------0-----------3-----------3-----------3-----------3-----|
|-----0---0-------0---0-------0---0-------0---0-------0---0-------0---0---|
|---2-------2---2-------2---2-------2---2-------2---2-------2---2-------0-|
|-0-----------4-----------3-----------3-----------3-----------3-----------|
|-------------------------------------------------------------------------|
Ooooooooooooooooooooooooooooooooooooooooooooh


    F#7                     Badd9       B           Eadd9
|-------------------------------------------------------------------------|
|-------1-----------1-----------0-----------0-----------3-----------3-----|
|-----2---2-------2---2-------2---2-------0---0-------0---0-------0---0---|
|---0-------0---0-------0---0-------0---0-------0---2-------2---2-------2-|
|-------------------------------------2-----------3-----------3-----------|
|-2-----------2-----------3-----------------------------------------------|
Oooooo000oooooooooooooooooooooooooooooooooooh


    C#9                     Eadd9                   Emadd9
|-------------------------------------------------------------------------|
|-------0-----------0-----------3-----------3-----------------------------|
|-----0---0-------0---0-------0---0-------0---0---------------------------|
|---2-------2---2-------2---2-------2---2-------2-------------------------|
|-0-----------4-----------3-----------3-----------3-----------------------|
|-------------------------------------------------------------------------|
Those thieving birds


////STRANGE BEHAVIOUR\\\\\

These are the shapes for the chords used in Strange Behaviour... Capo on fourth fret.

     E    A    C#m  F#7  B    Am

|--0---------0--------------1--|
|--1----1----1----1----0----1--|
|--0----2----2----2----0----1--|
|--2----3----2----0----0----3--|
|--3----3----0----0----2----3--|
|----------------------3----1--|


"When I'm paranoid..." (This isn't the order of chords, it's just the chords used. The 
down there | )
                                                                                         
               |
                                                                                         
               v
     D    E    G#   B  Ebm/Bb A   Ebm

|------------0----3----2----1---11-|
|--3----5----0----3----3----1---11-|
|--3----5----1----4----4----2---11-|
|--3----5----2----5----4----3---13-|
|--1----3----2----5----2----3---13-|
|------------0----3----2----1---11-|


Also, when he plays the C#m in the verses, he plays it like this:

|-----------------------------|
|-1---1-1-0-1---3---1---0-0-1-|
|-2---2-2-2-2---2---2---2-2-2-|
|-2---2-2-2-2---2---2---2-2-2-|
|-0---0-0-0-0---0---0---0-0-0-|
|-----------------------------|

E       A           C#m          F#7                 B                   Am
This is tearing me apart, if the sun won't shine, forever will never be fine


    E    A                C#m           F#7                B                Am
And underneath the hollow ground lies a night time sky for only a desperate eye


    D E D G#      B       Ebm/Bb  A               Am
|-----------------------------------------------1---1-1-1-1-1-1-1-|
|-----------------------------------------------1---1-1-1-1-1-1-1-|
|-----------------------------------------------1---1-1-1-1-1-1-1-|
|-----------------------------------------------3---3-3-3-3-3-3-3-|
|-1-3-1-----------------------------------------3---3-3-3-3-3-3-3-|
|-------0---0---3---3---2---2---1-----1---1-1---1---1-1-1-1-1-1-1-|
When I'm paranoid I see walls behind walls behind walls


    D E D G#      B       Ebm/Bb  A               Am
|-----------------------------------------------1---1-1-1-1-1-1-1-|
|-----------------------------------------------1---1-1-1-1-1-1-1-|
|-----------------------------------------------1---1-1-1-1-1-1-1-|
|-----------------------------------------------3---3-3-3-3-3-3-3-|
|-1-3-1-----------------------------------------3---3-3-3-3-3-3-3-|
|-------0---0---3---3---2---2---1-----1---1-1---1---1-1-1-1-1-1-1-|
When I'm overjoyed I see falls over falls over falls


    D E D G#      B       Ebm
|---------------------------------|
|---------------------------------|
|---------------------------------|
|---------------------------------|
|-1-3-1-----------------2---2-2---|
|-------0---0---3---3-------------|
When I'm all alone I'll be wary and careful to


    Am
|-1-1-1---1-1---1---1-1---1-1---1---1-1---1-1---1---1-1---1-1-----|
|-1-1-1---1-1---1---1-1---1-1---1---1-1---1-1---1---1-1---1-1-----|
|-1-1-1---1-1---1---1-1---1-1---1---1-1---1-1---1---1-1---1-1-----|
|-3-3-3---3-3---3---3-3---3-3---3---3-3---3-3---3---3-3---3-3-----|
|-3-3-3---3-3---3---3-3---3-3---3---3-3---3-3---3---3-3---3-3-----|
|-1-1-1---1-1---1---1-1---1-1---1---1-1---1-1---1---1-1---1-1-----|
Only eat with uncles, never talk to strangers, God is in the kitchen, faking baby dangers


E  A  C#m  F#7  B  Am

E          A          C#m            F#7              B                  Am
Change whatever karma means, for the only things that end never truly begin


E                          A     C#m                                     F#7
If this street's air ain't up to par, I'll take my clothes and take this strange behaviour


B              Am
Not only liked, but loved as well


E                          A     C#m                                     F#7
If this street's air ain't up to par, I'll take my clothes and take this strange behaviour


B              Am
Not only liked, but loved as well


    D E D G#      B       Ebm/Bb  A               Am
|-----------------------------------------------1---1-1-1-1-1-1-1-|
|-----------------------------------------------1---1-1-1-1-1-1-1-|
|-----------------------------------------------1---1-1-1-1-1-1-1-|
|-----------------------------------------------3---3-3-3-3-3-3-3-|
|-1-3-1-----------------------------------------3---3-3-3-3-3-3-3-|
|-------0---0---3---3---2---2---1-----1---1-1---1---1-1-1-1-1-1-1-|


    D E D G#      B       Ebm/Bb  A               Am
|-----------------------------------------------1---1-1-1-1-1-1-1-|
|-----------------------------------------------1---1-1-1-1-1-1-1-|
|-----------------------------------------------1---1-1-1-1-1-1-1-|
|-----------------------------------------------3---3-3-3-3-3-3-3-|
|-1-3-1-----------------------------------------3---3-3-3-3-3-3-3-|
|-------0---0---3---3---2---2---1-----1---1-1---1---1-1-1-1-1-1-1-|
When I'm paranoid I see walls behind walls behind walls


    D E D G#      B       Ebm/Bb  A               Am
|-----------------------------------------------1---1-1-1-1-1-1-1-|
|-----------------------------------------------1---1-1-1-1-1-1-1-|
|-----------------------------------------------1---1-1-1-1-1-1-1-|
|-----------------------------------------------3---3-3-3-3-3-3-3-|
|-1-3-1-----------------------------------------3---3-3-3-3-3-3-3-|
|-------0---0---3---3---2---2---1-----1---1-1---1---1-1-1-1-1-1-1-|
When I'm overjoyed I see falls over falls over falls


    D E D G#      B       Ebm
|---------------------------------|
|---------------------------------|
|---------------------------------|
|---------------------------------|
|-1-3-1-----------------2---2-2---|
|-------0---0---3---3-------------|
When I'm all alone I'll be wary and careful to


    Am
|-1-1-1---1-1---1---1-1---1-1---1---1-1---1-1---1---1-1---1-1-----|
|-1-1-1---1-1---1---1-1---1-1---1---1-1---1-1---1---1-1---1-1-----|
|-1-1-1---1-1---1---1-1---1-1---1---1-1---1-1---1---1-1---1-1-----|
|-3-3-3---3-3---3---3-3---3-3---3---3-3---3-3---3---3-3---3-3-----|
|-3-3-3---3-3---3---3-3---3-3---3---3-3---3-3---3---3-3---3-3-----|
|-1-1-1---1-1---1---1-1---1-1---1---1-1---1-1---1---1-1---1-1-----|
Only eat with uncles, never talk to strangers, God is in the kitchen, faking baby dangers


E                          A     C#m                                     F#7
If this street's air ain't up to par, I'll take my clothes and take this strange behaviour


B              Am
Not only liked, but loved as well


E                          A     C#m                                     F#7
If this street's air ain't up to par, I'll take my clothes and take this strange behaviour


B              Am
Not only liked, but loved as well


E                         A   C#m                                       F#7
And if this keeps tearing me apart, the walls come down won't stop this empty feeling


B             Am
For everything apart from this

(No guitar:)

Lonely in life, dead or alive

If the truth had incursions

No more goodbyes, no more big lies

If the truth had versions

As long as you and I are together

I'll hold onto the jewellery

Like staple-strapped clenched fist and tongs

/////THOSE THIEVING BIRDS (PART 2)\\\\\

    C#9                     Eadd9                   Emadd9
|-------------------------------------------------------------------------|
|-------0-----------0-----------3-----------3-----------3-----------3-----|
|-----0---0-------0---0-------0---0-------0---0-------0---0-------0---0---|
|---2-------2---2-------2---2-------2---2-------2---1-------1---1-------0-|
|-0-----------4-----------3-----------3-----------3-----------3-----------|
|-------------------------------------------------------------------------|

    F#7                     Badd9       B           Eadd9
|-------------------------------------------------------------------------|
|-------1-----------1-----------0-----------0-----------3-----------3-----|
|-----2---2-------2---2-------2---2-------0---0-------0---0-------0---0---|
|---0-------0---0-------0---0-------0---0-------0---2-------2---2-------2-|
|-------------------------------------2-----------3-----------3-----------|
|-2-----------2-----------3-----------------------------------------------|
Hang strung from an empty nest


    C#9                     Eadd9                   Emadd9
|-------------------------------------------------------------------------|
|-------0-----------0-----------3-----------3-----------3-----------3-----|
|-----0---0-------0---0-------0---0-------0---0-------0---0-------0---0---|
|---2-------2---2-------2---2-------2---2-------2---1-------1---1-------0-|
|-0-----------4-----------3-----------3-----------3-----------3-----------|
|-------------------------------------------------------------------------|
Those thieving birds


    F#7                     Badd9       B           Eadd9
|-------------------------------------------------------------------------|
|-------1-----------1-----------0-----------0-----------3-----------3-----|
|-----2---2-------2---2-------2---2-------0---0-------0---0-------0---0---|
|---0-------0---0-------0---0-------0---0-------0---2-------2---2-------2-|
|-------------------------------------2-----------3-----------3-----------|
|-2-----------2-----------3-----------------------------------------------|
Free love, sing love


    C#9                     Eadd9                   Emadd9
|-------------------------------------------------------------------------|
|-------0-----------0-----------3-----------3-----------3-----------3-----|
|-----0---0-------0---0-------0---0-------0---0-------0---0-------0---0---|
|---2-------2---2-------2---2-------2---2-------2---1-------1---1-------0-|
|-0-----------4-----------3-----------3-----------3-----------3-----------|
|-------------------------------------------------------------------------|
Those thieving birds


    F#7                     Badd9       B           Eadd9
|-------------------------------------------------------------------------|
|-------1-----------1-----------0-----------0-----------3-----------3-----|
|-----2---2-------2---2-------2---2-------0---0-------0---0-------0---0---|
|---0-------0---0-------0---0-------0---0-------0---2-------2---2-------2-|
|-------------------------------------2-----------3-----------3-----------|
|-2-----------2-----------3-----------------------------------------------|
Free love, sing love


    C#9                     Eadd9                   Emadd9
|-------------------------------------------------------------------------|
|-------0-----------0-----------3-----------3-----------3-----------3-----|
|-----0---0-------0---0-------0---0-------0---0-------0---0-------0---0---|
|---2-------2---2-------2---2-------2---2-------2---1-------1---1-------0-|
|-0-----------4-----------3-----------3-----------3-----------3-----------|
|-------------------------------------------------------------------------|
Those thieving birds


    F#7                     Badd9       B           Eadd9
|-------------------------------------------------------------------------|
|-------1-----------1-----------0--------------------------------------0--|
|-----2---2-------2---2-------2---2-------------------------------------0-|
|---0-------0---0-------0---0-------0-------------------------------------|
|-------------------------------------2-----------3-----------------------|
|-2-----------2-----------3-----------------------------------------------|
Hang strung from an empty nest

 ---------------------------------------------------------------------

6. The Man That Knew Too Much (Standard Tuning EADGBE)


   Em   Eb D  Bm B C         D G   C         D G
|-------------------------------------------------|
|-------------------------------------------------|
|-------------------------------------------------|
|---------------1---------------------------------|
|-7-7-7-6-5-5-2-2-3-----3-3/5-2---3-----3-3/5-2---|
|-7-7-7-6-5-5-2-2-3-----3-3/5-3---3-----3-3/5-3---|


   Em   Eb D  Bm B C         D G   C         D G
|-------------------------------------------------|
|-------------------------------------------------|
|-------------------------------------------------|
|---------------1---------------------------------|
|-7-7-7-6-5-5-2-2-3-----3-3/5-2---3-----3-3/5-2---|
|-7-7-7-6-5-5-2-2-3-----3-3/5-3---3-----3-3/5-3---|


   Em   Eb D  Bm B C         D G   C         D G
|-------------------------------------------------|
|-------------------------------------------------|
|-------------------------------------------------|
|---------------1---------------------------------|
|-7-7-7-6-5-5-2-2-3-----3-3/5-2---3-----3-3/5-2---|
|-7-7-7-6-5-5-2-2-3-----3-3/5-3---3-----3-3/5-3---|
There was a man that knew too much, with a panic attic mind, but a


   Em   Eb D  Bm B C         D G   C         D Eb
|-------------------------------------------------|
|-------------------------------------------------|
|-------------------------------------------------|
|---------------1---------------------------------|
|-7-7-7-6-5-5-2-2-5-----3-3/5-2---3-----3-3/5-6---|
|-7-7-7-6-5-5-2-2-3-----3-3/5-3---3-----3-3/5-6---|
A chance to numb his golden touch, to ignore the will of time


   Em   Eb D  Bm B C         D G   C         D G
|-------------------------------------------------|
|-------------------------------------------------|
|-------------------------------------------------|
|---------------1---------------------------------|
|-7-7-7-6-5-5-2-2-3-----3-3/5-2---3-----3-3/5-2---|
|-7-7-7-6-5-5-2-2-3-----3-3/5-3---3-----3-3/5-3---|
Had me struck down open do the fact, I was standing in a line with a


   Em   Eb D  Bm B C               D
|---------------------0-------0-------2-------2---|
|---------------------1-------1-------3-------3---|
|---------------------0-------0-------2-------2---|
|---------------1-2---2---2-2-2---0-0-0---0-0-0---|
|-7-7-7-6-5-5-2-2-3---3---3-3-3---0-0-0---0-0-0---|
|-7-7-7-6-5-5-2-2-3---3---3-3-3-------------------|
Broken occupation on my back


   A               F#m
|-0-------------------------------|
|-2-------------------------------|
|-2-------------------------------|
|-2-------------------------------|
|-0-------------------------------|
|---------------------------------|
Time is not a moment we're letting slip away


   C#     C#     D       Dm
|---------------------------------|
|-----------------------------0---|
|---------------------------------|
|---------------------------------|
|---------------------------------|
|---------------------------------|
There's nothing left to say, it's changing every day


   A               F#m
|---------------------------------|
|---------------------------------|
|---------------------------------|
|---------------------------------|
|---------------------------------|
|---------------------------------|
The way I'm thinking in different shades of grey


   C#     C#     D       Dm
|-------------------------1-1-1-1-|
|-------------------------3-3-3-3-|
|-------------------------2-2-2-2-|
|-------------------------0-0-0-0-|
|---------------------------------|
|---------------------------------|
It's not enough to say this is my love


   Em   Eb D  Bm B C         D G   C         D G
|-------------------------------------------------|
|-------------------------------------------------|
|-------------------------------------------------|
|---------------1---------------------------------|
|-7-7-7-6-5-5-2-2-3-----3-3/5-2---3-----3-3/5-2---|
|-7-7-7-6-5-5-2-2-3-----3-3/5-3---3-----3-3/5-3---|
                 Oh


   Em   Eb D  Bm B C         D G   C         D G
|-----7-7-----7-7-----7-7-----7-7-----7-7-----7-7-|
|-----8-8-----8-8-----8-8-----8-8-----8-8-----8-8-|
|-------------------------------------------------|
|-------------------------------------------------|
|-------------------------------------------------|
|-------------------------------------------------|
He had the anti-Midas touch, temporary state of mind, but a

     (Do a fast trill with the B note |)
                                      v
   Em   Eb D  Bm B C         D G   C           D Eb
|-----7-7-----7-7-----7-7-----7-7-7878787878787--------|
|-----8-8-----8-8-----8-8-----8-8--------------88888888|
|------------------------------------------------------|
|------------------------------------------------------|
|------------------------------------------------------|
|------------------------------------------------------|
A chance to die enhances growth, now I'm trembling all the time


   Em   Eb D  Bm B C         D G   C         D G
|-------------------------------------------------|
|-------------------------------------------------|
|-------------------------------------------------|
|---------------1---------------------------------|
|-7-7-7-6-5-5-2-2-3-----3-3/5-2---3-----3-3/5-2---|
|-7-7-7-6-5-5-2-2-3-----3-3/5-3---3-----3-3/5-3---|
Stumble round, making faces on the scene, scene, what, what


   Em   Eb D  Bm B C               D
|---------------------0-------0-------2-------2---|
|---------------------1-------1-------3-------3---|
|---------------------0-------0-------2-------2---|
|---------------1-2---2---2---2---0---0---0-0-0---|
|-7-7-7-6-5-5-2-2-3---3---3---3---0---0---0-0-0---|
|-7-7-7-6-5-5-2-2-3---3---3---3-------------------|
Stumble round, make your faces on your own


   A               F#m
|---------------------4---2-------|
|-------------0-------------2-0---|
|-----2---------0-------2-------0-|
|---2---2---2---------------------|
|-0-------0---------4-------------|
|-----------------2---------------|
Time is not a moment we're letting slip away


   C#     C#     D       Dm
|---------------------2-----------|
|-----5-------------3---------0---|
|-------4-----3---------0---2---0-|
|---5-------5---5-0-------0-------|
|-4-------4-----------------------|
|---------------------------------|
There's nothing left to say, it's changing every day


   A               F#m
|---------------------4---2-------|
|-----2-1-0-----------------2-0---|
|-----------0-----------2-------0-|
|---2---------2-------------------|
|-0-------------2---4-------------|
|-----------------2---------------|
The way I'm thinking in different shades of grey


   C#     C#     D       Dm
|---------------------2---1-1-1-11|
|-----5-------5-----3---3-3-3-3-33|
|-------4-------3---------2-2-2-22|
|---5-------5-----0-------0-0-0-00|
|-4-------4-----------------------|
|---------------------------------|
It's not enough to say this is my love


   D             B
|---------------------------------|
|-7---7---7-8-7-4---5-5---5-4-4-44|
|-7---7---7-7-7-4---4-4---4-4-4-44|
|-7---7---7-7-7-4---4-4---4-4-4-44|
|-5---5---5-5-5-2---2-2---2-2-2-22|
|---------------------------------|
(Woohoo) I'm not your mockingbird


   D             B
|---------------------------------|
|-7---7---7-8-7-4---5-5---5-4-4-44|
|-7---7---7-7-7-4---4-4---4-4-4-44|
|-7---7---7-7-7-4---4-4---4-4-4-44|
|-5---5---5-5-5-2---2-2---2-2-2-22|
|---------------------------------|
(Woohoo) That sings your cellar song


   D             B
|---------------------------------|
|-7---7---7-8-7-4---5-5---5-4-4-44|
|-7---7---7-7-7-4---4-4---4-4-4-44|
|-7---7---7-7-7-4---4-4---4-4-4-44|
|-5---5---5-5-5-2---2-2---2-2-2-22|
|---------------------------------|
(Woohoo) She got a paper run


   D             B
|---------------------------------|
|-7---7---7-8-7-4---5-5---5-4-4---|
|-7---7---7-7-7-4---4-4---4-4-4---|
|-7---7---7-7-7-4---4-4---4-4-4---|
|-5---5---5-5-5-2---2-2---2-2-2---|
|---------------------------------|
(Woohoo) You're compensated


   Em    Eb D Bm B C         D G   C         D G
|-------------------------------------------------|
|-888888776666------------------------------------|
|-------------7777----9\------9\------9\------9\--|
|-------------------------------------------------|
|-------------------------------------------------|
|-------------------------------------------------|
Can we all gather round on the scene


   Em    Eb D Bm B C         D G   C         D Eb
|------------------------3h5----------------------|
|-888888776666-------12\--------------------------|
|-------------777---------------------------------|
|---------------------------4444b5555555555-------|
|-------------------------------------------------|
|-------------------------------------------------|
Can we all move around on our own


     Em Eb D  Bm B C
|---------------------0-------0-------0---0---0---|
|---------------------1-------1-------1---1---1---|
|---------------------0-------0-------0---0---0---|
|---------------1-2---2-------2-------2---2---2---|
|---7-7-6-5-5-2-2-3---3-------3-------3---3---3---|
|---7-7-6-5-5-2-2-3---3-------3-------3---3---3---|
Are ya a mover shaker all alone


   A               F#m
|---------------------4---2-------|
|-------------0-------------2-0---|
|-----2---------0-------2-------0-|
|---2---2---2---------------------|
|-0-------0---------4-------------|
|-----------------2---------------|
Time is not a moment we're letting slip away


   C#     C#     D       Dm
|---------------------2-----------|
|-----5-------5-----3---------0---|
|-------4-------3-------0---2---0-|
|---5-------5-----0-------0-------|
|-4-------4-----------------------|
|---------------------------------|
There's nothing left to say, it's changing every day


   A               F#m
|---------------------4---2-------|
|-----2-1-0-----------------2-0---|
|-----------0-----------2-------0-|
|---2---------2-------------------|
|-0-------------2---4-------------|
|-----------------2---------------|
The way I'm thinking in different shades of grey


   C#     C#     D       Dm
|---------------------2-------5---|
|-----5-------5-----3---3---3-----|
|-------4-------3---------------0-|
|---5-------5-----0-------0-------|
|-4-------4-----------------------|
|---------------------------------|
It not enough to say, aah


   A               F#m
|---------------------4---2-------|
|-----2-1-0-----------------2-0---|
|-----------0-----------2-------0-|
|---2---------2-------------------|
|-0-------------2---4-------------|
|-----------------2---------------|
Time is not a moment we're letting slip away


   C#     C#     D       Dm
|---------------------2---1-1-1-11|
|-----5-------5-----3---3-3-3-3-33|
|-------4-------3---------2-2-2-22|
|---5-------5-----0-------0-0-0-00|
|-4-------4-----------------------|
|---------------------------------|
There's nothing left to say but this is my love


   D             B
|---------------------------------|
|-7---7---7-8-7-4---5-5---5-4-4-44|
|-7---7---7-7-7-4---4-4---4-4-4-44|
|-7---7---7-7-7-4---4-4---4-4-4-44|
|-5---5---5-5-5-2---2-2---2-2-2-22|
|-5---5---5-5-5-2---2-2---2-2-2-22|
(Woohoo) I'm not your mockingbird

[ Tab from: http://www.guitaretab.com/s/silverchair/110967.html ]
   D             B
|---------------------------------|
|-7---7---7-8-7-4---5-5---5-4-4-44|
|-7---7---7-7-7-4---4-4---4-4-4-44|
|-7---7---7-7-7-4---4-4---4-4-4-44|
|-5---5---5-5-5-2---2-2---2-2-2-22|
|-5---5---5-5-5-2---2-2---2-2-2-22|
(Woohoo) That sings your cellar song


   D             B
|---------------------------------|
|-7---7---7-8-7-4---5-5---5-4-4-44|
|-7---7---7-7-7-4---4-4---4-4-4-44|
|-7---7---7-7-7-4---4-4---4-4-4-44|
|-5---5---5-5-5-2---2-2---2-2-2-22|
|-5---5---5-5-5-2---2-2---2-2-2-22|
(Woohoo) She got her paper run


   D             B
|---------------------------------|
|-7---7---7-8-7-4---5-5---5-4-----|
|-7---7---7-7-7-4---4-4---4-4-5-6-|
|-7---7---7-7-7-4---4-4---4-4-5-6-|
|-5---5---5-5-5-2---2-2---2-2-3-4-|
|-5---5---5-5-5-2---2-2---2-2-3-4-|
(Woohoo) To write your letters wrong


   D             B
|---------------------------------|
|-7---7---7-8-7-4---5-5---5-4-----|
|-7---7---7-7-7-4---4-4---4-4-5-6-|
|-7---7---7-7-7-4---4-4---4-4-5-6-|
|-5---5---5-5-5-2---2-2---2-2-3-4-|
|-5---5---5-5-5-2---2-2---2-2-3-4-|
(Woohoo, ah, ah ah, ah ah, ah)


   D             B
|---------------------------------|
|-7---7---7-8-7-4---5-5---5-4-----|
|-7---7---7-7-7-4---4-4---4-4-5-6-|
|-7---7---7-7-7-4---4-4---4-4-5-6-|
|-5---5---5-5-5-2---2-2---2-2-3-4-|
|-5---5---5-5-5-2---2-2---2-2-3-4-|
(Woohoo, ah, ah ah, ah ah, ah)


   D             B
|---------------------------------|
|-7---7---7-8-7-4---5-5---5-4-----|
|-7---7---7-7-7-4---4-4---4-4-5-6-|
|-7---7---7-7-7-4---4-4---4-4-5-6-|
|-5---5---5-5-5-2---2-2---2-2-3-4-|
|-5---5---5-5-5-2---2-2---2-2-3-4-|
(Woohoo, ah, ah ah, ah ah, ah)


   D             B
|---------------------------------|
|-7---7---7-8-7-4---5-5---5-4-----|
|-7---7---7-7-7-4---4-4---4-4-5-6-|
|-7---7---7-7-7-4---4-4---4-4-5-6-|
|-5---5---5-5-5-2---2-2---2-2-3-4-|
|-5---5---5-5-5-2---2-2---2-2-3-4-|
(Woohoo, ah, ah ah, ah ah, ah)


   D             B
|---------------------------------|
|-7---7---7-8-7-4---5-5---5-4-----|
|-7---7---7-7-7-4---4-4---4-4-5-6-|
|-7---7---7-7-7-4---4-4---4-4-5-6-|
|-5---5---5-5-5-2---2-2---2-2-3-4-|
|-5---5---5-5-5-2---2-2---2-2-3-4-|
(Woohoo, ah, ah ah, ah ah, ah)


   D             B
|---------------------------------|
|-7---7---7-8-7-4---5-5---5-4-----|
|-7---7---7-7-7-4---4-4---4-4-5-6-|
|-7---7---7-7-7-4---4-4---4-4-5-6-|
|-5---5---5-5-5-2---2-2---2-2-3-4-|
|-5---5---5-5-5-2---2-2---2-2-3-4-|
(Woohoo, ah, ah ah, ah ah, ah)


   D             B
|-------------------66666666777777777|
|-7---7---7-8-7-4--------------------|
|-7---7---7-7-7-4--------------------|
|-7---7---7-7-7-4--------------------|
|-5---5---5-5-5-2--------------------|
|-5---5---5-5-5-2--------------------|
(Woohoo, ah, ah ah, ah ah, ah)


   D     B    (Pre-bend bracketed A to Bb, release slowly, use screech)
|-----------------------------------------------------------------------|
|-7---7-887-4--- Do a muted pick thing ---------------------------------|
|-7---7-777-2--- on the C -> ---5-----------(2~~~~~~~~~~~~~)------------|
|-7---7-777-4-----------------------------------------------------------|
|-5---5-555-2----------3-------------------------------------/12--------|
|-5---5-555-2--------------------------3--------------------------------|
(Woohoo)

 ---------------------------------------------------------------------


7. Waiting All Day (Standard Tuning EADGBE)

   Fm              Ab              C7
|-----------------------------------------------------------------|
|-------1---------------------------------------------------1-----|
|-----------1---------------------------3b4-3b4---------3b4-------|
|-----------------------3---1-------------------------------------|
|---------------------------------3-------------------------------|
|-1---------------------------------------------------------------|

   Fm              Ab              C7
|-----------------------------------------------------------------|
|-------1---------------------------------------------------1-----|
|-----------1---------------------------3b4r3-----------3b4-------|
|-----------------------3---1-------2-----------2-----------------|
|---------------------------------3-------------------------------|
|-1---------------------------------------------------------------|

Fm            Ab    C7
    I took advantage of a straight-believing town


Fm                 Ab    C7
    They tore the bandage and said "look who's bleeding now"


Fm           Ab                  Bbm                Db
    Are you listening or are you faithless like the others?

|--4/16--|
|--------|
|--------|
|--------|
|--------|
|--------|

Ab       Bbm      Fm     Eb    Ab    Bbm       Fm  Eb
    Long days are almost here, faded signs for you


        Ab           Bbm           Fm           Eb
I'll be waiting all day, I've been waiting all year


       Cm     Eb6 Eb7
For you, it's true


Fm             Ab    C7
    He's been beaten, but he brought it on himself


Fm                 Ab    C7
    So he stopped reading every book on mental health


Fm                 Ab          Bbm            Db
    But all's not lost in this tangle like no other

|--4/16--|
|--------|
|--------|
|--------|
|--------|
|--------|

Ab       Bbm      Fm     Eb    Ab    Bbm       Fm  Eb
    Long days are almost here, faded signs for you


        Ab           Bbm           Fm           Eb
I'll be waiting all day, I've been waiting all year


       Cm     Eb6 Eb7
For you, it's true


Cm                  G          Ab          Eb
Take this dose and go, whiskey warm September


    Cm                 G          Ab          Eb
The faded signs will show that he still remembers

This is the slide guitar solo:


   Fm              Ab              C7
|---------15---15\13------------8/12------------------------------|
|-----------------------------------------------------------------|
|-----------------------------------------------------------------|
|-----------------------------------------------------------------|
|-----------------------------------------------------------------|
|-----------------------------------------------------------------|

   Fm              Ab              C7
|---------15---15\13--------15/16/18------------------------------|
|-----------------------------------------------------------------|
|-----------------------------------------------------------------|
|-----------------------------------------------------------------|
|-----------------------------------------------------------------|
|-----------------------------------------------------------------|

                                                Slide up slowly ->

   Fm              Ab              Bbm             Db
|--------15---15\13--------8-----9--------11-11/13///////////////////////////16--|
|--------------------------------------------------------------------------------|
|--------------------------------------------------------------------------------|
|--------------------------------------------------------------------------------|
|--------------------------------------------------------------------------------|
|--------------------------------------------------------------------------------|


And this is the guitar behind it...


   Fm              Ab              C7
|-----------------------------------------------------------------|
|---------------------------------------1-------------------1-----|
|-1-1-1-1-1-1-1-1-1-1-1-1-1-1-1-1-1-1-1-----3b4---------3b4-------|
|-----------------------------------------------------------------|
|-----------------------------------------------------------------|
|-----------------------------------------------------------------|

   Fm              Ab              C7
|-----------------------------------------------------------------|
|-------------------------------------------1-----------1---------|
|-1-1-1-1-1-1-1-1-1-1-1-1-1-1-1-1-------3b4-----------------3b4---|
|-----------------------------------------------------------------|
|-----------------------------------------------------------------|
|-----------------------------------------------------------------|

   Fm              Ab              Bbm             Db
|------------------------------------------------------------------------|
|------------------------------------------------------------------------|
|-1-1-1-1-1-1-1-1-1-1-1-1-1-1-1-1-1-3---3---3---1------------------------|
|------------------------------------------------------------------------|
|------------------------------------------------------------------------|
|------------------------------------------------------------------------|

Ab       Bbm      Fm     Eb    Ab    Bbm       Fm  Eb
    Long days are almost here, faded signs for you


        Ab           Bbm         Fm           Eb
I'll be waiting all day, I've be waiting all year


       Cm     Eb6 Eb7
For you, it's true


Ab           Bbm Fm           Eb
Waiting all day, waiting all year


Ab           Bbm Fm           Eb
Waiting all day, waiting all year


        Ab           Bbm           Fm           Eb
I'll be waiting all day, I've been waiting all year


        Ab           Bbm           Fm           Eb
I'll be waiting all day, I've been waiting all year


        Ab           Bbm         Fm           Eb
I'll be waiting all day, I'll be waiting all year


        Ab           Bbm           Fm           Eb
I'll be waiting all day, I've been waiting all year


        Ab           Bbm           Fm           Eb
I'll be waiting all day, I've been waiting all year


        Ab           Bbm           Fm           Eb
I'll be waiting all day, I've been waiting all year


 ---------------------------------------------------------------------


8. Mind Reader (Standard Tuning EADGBE)


|-----------------------------------------------------------------|
|-----------------------------------------------------------------|
|-----------------------------------------------------------------|
|-------------2-5-------------2-5-------------2-5-------------2-5-|
|-X-2---2-4---2-----2---2-4---2-----2---2-4---2-----2---2-4---2---|
|-X-0---0-0---------0---0-0---------0---0-0---------0---0-0-------|

|-----------------------------------------------------------------|
|-----------------------------------------------------------------|
|-----------------------------------------------------------------|
|-------------2-5-------------2-5-------------2-5-------------2-5-|
|---2---2-4---2-----2---2-4---2-----2---2-4---2-----2---2-4---2---|
|---0---0-0---------0---0-0---------0---0-0---------0---0-0-------|
I heard a hole in the silence, I saw a crack in the plan

|---------------------------------|
|---------------------------------|
|---6-----6---6-6---6-----6---6-6-|
|---5-----5---5-5---5-----5---5-5-|
|---6-----6---6-6---6-----6---6-6-|
|---------------------------------|
But I got lazy ways

|-----------------------------------------------------------------|
|-----------------------------------------------------------------|
|-----------------------------------------------------------------|
|-------------2-5-------------2-5-------------2-5-------------2-5-|
|---2---2-4---2-----2---2-4---2-----2---2-4---2-----2---2-4---2---|
|---0---0-0---------0---0-0---------0---0-0---------0---0-0-------|
You're not a private detective, take off your telephone shoes

|---------------------------------|
|---------------------------------|
|---6-----6---6-6---6-----6---6-6-|
|---5-----5---5-5---5-----5---5-5-|
|---6-----6---6-6---6-----6---6-6-|
|---------------------------------|
My thoughts are goin' out-of-phase

|---------------------------------|
|---------------------------------|
|---------------------------------|
|-------------2-5-------------2-5-|
|---2---2-4---2-----2---2-4---2---|
|---0---0-0---------0---0-0-------|
Whoa

|---------------------------------|
|---------------------------------|
|---6-----6---6-6---6-----6---6-6-|
|---5-----5---5-5---5-----5---5-5-|
|---6-----6---6-6---6-----6---6-6-|
|---------------------------------|
And these are the better days

|-----------------------------------------------------------------|
|---7---7-8---8-7---2---2-3---3-2---5---5-6---6-5---2---2-2---2-2-|
|---7---7-7---7-7---2---2-2---2-2---5---5-5---5-5---3---3-4---4-3-|
|---7---7-7---7-7---2---2-2---2-2---5---5-5---5-5---4---4-4---4-4-|
|---5---5-5---5-5---0---0-0---0-0---3---3-3---3-3---4---4-4---4-4-|
|-----------------------------------------------------------------|
Still it seems funny stickin' like honey, wrote my own article, now I'm hummin'

|-----------------------------------------------------------------|
|---7---7-8---8-7---2---2-2---2-3-4-5---5-6---6-5---2---2-2---2-2-|
|---7---7-7---7-7---2---2-2---2-3-4-5---5-5---5-5---3---3-4---4-3-|
|---7---7-7---7-7---2---2-2---2-3-4-5---5-5---5-5---4---4-4---4-4-|
|---5---5-5---5-5---0---0-0---0-1-2-3---3-3---3-3---4---4-4---4-4-|
|-----------------------------------------------------------------|
She takes pictures through my lazy eye, and I'm dreamin' girl, it's your money

|-----------------------------------------------------------------|
|-----------------------------------------------------------------|
|-----------------------------------------------------------------|
|-------------2-5-------------2-5-------------2-5-----------------|
|---2---2-4---2-----2---2-4---2-----2---2-4---2-----2---2-4---12\-|
|---0---0-0---------0---0-0---------0---0-0---------0---0-0-------|
Ooh

|-----------------------------------------------------------------|
|-----------------------------------------------------------------|
|-----------------------------------------------------------------|
|-----------------------------------------------------------------|
|---2-------------------------------------------------------------|
|---0-------------------------------------------------------------|
Well we're alone and out drivin' ourselves around all the bends

|---------------------------------|
|---------------------------------|
|---6-----6---6-6---6-----6---6-6-|
|---5-----5---5-5---5-----5---5-5-|
|---6-----6---6-6---6-----6---6-6-|
|---------------------------------|
She got crazy ways

|---------------------------------|
|---------------------------------|
|---------------------------------|
|-------------2-5-------------2-5-|
|---2---2-4---2-----2---2-4---2---|
|---0---0-0---------0---0-0-------|
Wow

|---------------------------------|
|---------------------------------|
|---6-----6---6-6---6-----6---6-6-|
|---5-----5---5-5---5-----5---5-5-|
|---6-----6---6-6---6-----6---6-6-|
|---------------------------------|
And I'm all woooooooooooo

|-----------------------------------------------------------------|
|---7---7-8---8-7---2---2-3---3-2---5---5-6---6-5---2---2-2---2-2-|
|---7---7-7---7-7---2---2-2---2-2---5---5-5---5-5---3---3-4---4-3-|
|---7---7-7---7-7---2---2-2---2-2---5---5-5---5-5---4---4-4---4-4-|
|---5---5-5---5-5---0---0-0---0-0---3---3-3---3-3---4---4-4---4-4-|
|-----------------------------------------------------------------|
Still it seems funny stickin' like honey, wrote my own article, now I'm hummin'

|-----------------------------------------------------------------|
|---7---7-8---8-7---2---2-2---2-3-4-5---5-6---6-5---2---2-2---2-2-|
|---7---7-7---7-7---2---2-2---2-3-4-5---5-5---5-5---3---3-4---4-3-|
|---7---7-7---7-7---2---2-2---2-3-4-5---5-5---5-5---4---4-4---4-4-|
|---5---5-5---5-5---0---0-0---0-1-2-3---3-3---3-3---4---4-4---4-4-|
|-----------------------------------------------------------------|
She takes pictures through my lazy eyes, and I'm dreamin' girl, it's your money

|---------------------------------------------------6-------------|
|---------------------------------------------------6-------------|
|---9-------8-------9-------8-------9-------8-------7-------10----|
|---9-------8-------9-------8-------9-------8-------8-------10----|
|---7-------6-------7-------6-------7-------6-------8-------8-----|
|---0---------------0---------------0---------------6-------------|
Don't know what you want, don't know what you want, no I'm not a mind reader, baby come on

|---------------------------------------------------6-------------|
|---------------------------------------------------6-------------|
|---9-------8-------9-------8-------9-------8-------7-------10----|
|---9-------8-------9-------8-------9-------8-------8-------10----|
|---7-------6-------7-------6-------7-------6-------8-------8-----|
|---0---------------0---------------0---------------6-------------|
Don't know what you want, don't know what you want, no I'm not a mind reader, baby come on

|---------------------------------------------------6-------------|
|---------------------------------------------------6-------------|
|---9-------8-------9-------8-------9-------8-------7-------10----|
|---9-------8-------9-------8-------9-------8-------8-------10----|
|---7-------6-------7-------6-------7-------6-------8-------8-----|
|---0---------------0---------------0---------------6-------------|
Don't know what you want, don't know what you want, no I'm not a mind reader, baby

|-----------------------------------------------------------------|
|-----------------------------------------------------------------|
|-----------------------------------------------------------------|
|-----------------------------------------------------------------|
|-----------------------------------------------------------------|
|-----------------------------------------------------------------|

(Do do do do, do do do do, do do do do, do do do do)


|-----------------------------------------------------------------|
|-----------------------------------------------------------------|
|-----------------------------------------------------------------|
|-----------------------------------------------------------------|
|-----------------------------------------------------------------|
|-----------------------------------------------------------------|
Ooh
(Do do do do, do do do do, do do do do, do do do do)


|-----------------------------------------------------------------|
|-----------------------------------------------------------------|
|-----------------------------------------------------------------|
|-----------------------------------------------------------------|
|-----------------------------------------------------------------|
|-----------------------------------------------------------------|
I got addictive-dependant, I got a cold change of heart
(Do do do do, do do do do, do do do do, do do do do)


|---------------------------------|
|---------------------------------|
|---6-----6---6-6---6-----6---6-6-|
|---5-----5---5-5---5-----5---5-5-|
|---6-----6---6-6---6-----6---6-6-|
|---------------------------------|
But I got lazy ways

|---------------------------------|
|---------------------------------|
|---------------------------------|
|-------------2-5-------------2-5-|
|---2---2-4---2-----2---2-4---2---|
|---0---0-0---------0---0-0-------|
Wow
(Do do do do, do do do do)


|---------------------------------|
|---------------------------------|
|---6-----6---6-6---6-----6---6-6-|
|---5-----5---5-5---5-----5---5-5-|
|---6-----6---6-6---6-----6---6-6-|
|---------------------------------|
And we're all woooooooooooo

|-----------------------------------------------------------------|
|---7---7-8---8-7---2---2-3---3-2---5---5-6---6-5---2---2-2---2-2-|
|---7---7-7---7-7---2---2-2---2-2---5---5-5---5-5---3---3-4---4-3-|
|---7---7-7---7-7---2---2-2---2-2---5---5-5---5-5---4---4-4---4-4-|
|---5---5-5---5-5---0---0-0---0-0---3---3-3---3-3---4---4-4---4-4-|
|-----------------------------------------------------------------|
Still it seems funny stickin' like honey, wrote my own article, now I'm hummin'

|-----------------------------------------------------------------|
|---7---7-8---8-7---2---2-2---2-3-4-5---5-6---6-5---2---2-2---2-2-|
|---7---7-7---7-7---2---2-2---2-3-4-5---5-5---5-5---3---3-4---4-3-|
|---7---7-7---7-7---2---2-2---2-3-4-5---5-5---5-5---4---4-4---4-4-|
|---5---5-5---5-5---0---0-0---0-1-2-3---3-3---3-3---4---4-4---4-4-|
|-----------------------------------------------------------------|
She takes pictures through my lazy eyes, and I'm dreamin' girl, it's your money

|---------------------------------------------------6-------------|
|---------------------------------------------------6-------------|
|---9-------8-------9-------8-------9-------8-------7-------10----|
|---9-------8-------9-------8-------9-------8-------8-------10----|
|---7-------6-------7-------6-------7-------6-------8-------8-----|
|---0---------------0---------------0---------------6-------------|
Don't know what you want, don't know what you want, no I'm not a mind reader, baby come on

|---------------------------------------------------6-------------|
|---------------------------------------------------6-------------|
|---9-------8-------9-------8-------9-------8-------7-------10----|
|---9-------8-------9-------8-------9-------8-------8-------10----|
|---7-------6-------7-------6-------7-------6-------8-------8-----|
|---0---------------0---------------0---------------6-------------|
Don't know what you want, don't know what you want, no I'm not a mind reader, baby come on

|---------------------------------------------------6-------------|
|---------------------------------------------------6-------------|
|---9-------8-------9-------8-------9-------8-------7-------10----|
|---9-------8-------9-------8-------9-------8-------8-------10----|
|---7-------6-------7-------6-------7-------6-------8-------8-----|
|---0---------------0---------------0---------------6-------------|
Don't know what you want, don't know what you want, no I'm not a mind reader, baby come on

|---------------------------------------------------6-------------|
|---------------------------------------------------6-------------|
|---9-------8-------9-------8-------9-------8-------7-------------|
|---9-------8-------9-------8-------9-------8-------8-------3-----|
|---7-------6-------7-------6-------7-------6-------8-------3-----|
|---0---------------0---------------0---------------6-------1-----|
Don't know what you want, don't know what you want, no I'm not a mind reader, mind reader

|--------------------|
|--------------------|
|---6----------------|
|---6-------5-5-5-5--|
|---4-------5-5-5-5--|
|-----------3-3-3-3--|
Mind reader, baby come on


 ---------------------------------------------------------------------

9. Low (Standard Tuning EADGBE)


   D                      Bm               F#m                E
|--14--12/14\12-10-12/14--12/14\12-10\9-9--14-12/14\12-10/12\9-----|
|------------------------------------------------------------------|
|------------------------------------------------------------------|
|------------------------------------------------------------------|
|------------------------------------------------------------------|
|------------------------------------------------------------------|


                 Bm           F#m         E
|--7/9-9/12\10---9/10\9-7/9--7\5-7/9-7-9\7-7--------------------|
|---------------------------------------------------------------|
|---------------------------------------------------------------|
|---------------------------------------------------------------|
|---------------------------------------------------------------|
|---------------------------------------------------------------|


   E
|----12-----12-------12------|
|--9---10-----10-9------9----|
|----------------------------|
|----------------------------|
|----------------------------|
|----------------------------|


D                     Bm                   F#m                    E
  Have you ever been lost, floating on the ground like the fading frost?


                 Bm                F#m                E
You've fallen asleep next to your bed and you feel so low


   E
|----12-----12-------12------|
|--9---10-----10-9------9----|
|----------------------------|
|----------------------------|
|----------------------------|
|----------------------------|


D                         Bm                       F#m               E
Oh, they've stolen your pride, stand up while your conscience sits aside


              Bm                 F#m               E
I've made up my mind half of the time and I feel so low


   E
|----12-----12-------12------|
|--9---10-----10-9------9----|
|----------------------------|
|----------------------------|
|----------------------------|
|----------------------------|


A          A Bm   C#m D      Dsus4 D  C     Csus4 C  E            A    A Bm  C#m D Dsus4 
C Csus4 C
  Stay and hijack the hurt, I feel so low, I feel so high, take a look inside my mind


 E
Ooh, oo-ooh, oo-ooh, ooh, oo-ooh, oo-ooh


   D                      Bm               F#m                E
|--14--12/14\12-10-12/14--12/14\12-10\9-9--14-12/14\12-10/12\9--|
|---------------------------------------------------------------|
|---------------------------------------------------------------|
|---------------------------------------------------------------|
|---------------------------------------------------------------|
|---------------------------------------------------------------|


                 Bm           F#m         E
|--7/9-9/12\10---9/10\9-7/9--7\5-7/9-7-9\7-7--------------------|
|---------------------------------------------------------------|
|---------------------------------------------------------------|
|---------------------------------------------------------------|
|---------------------------------------------------------------|
|---------------------------------------------------------------|


D                   Bm                         F#m                 E
  If the object was clear, there wouldn't be a point, only Godless fear


               Bm                  F#m            E
By the end of July, I wonder, will I still feel so low?


   E
|----12-----12-------12------|
|--9---10-----10-9------9----|
|----------------------------|
|----------------------------|
|----------------------------|
|----------------------------|


   D               Bm              F#m             E
|-----------------------------------------------------------------|
|-15--------------12--------------14--------------17--------------|
|-----------------------------------------------------------------|
|-----------------------------------------------------------------|
|-----------------------------------------------------------------|
|-----------------------------------------------------------------|
Oh, I'm host to a guide, moving in time and falling in line


   Bm              F#m             E
|-----------------------------------------------------------------|
|-15--------------14--------------17\-----------------------------|
|-----------------------------------------------------------------|
|-----------------------------------------------------------------|
|-----------------------------------------------------------------|
|-----------------------------------------------------------------|
I've made up my mind, the papers are signed and I feel so low


   E
|----12-----12-------12------|
|--9---10-----10-9------9----|
|----------------------------|
|----------------------------|
|----------------------------|
|----------------------------|


A          A Bm   C#m D      Dsus4 D  C     Csus4 C  E            A    A Bm  C#m D Dsus4 
C Csus4 C
  Stay and hijack the hurt, I feel so low, I feel so high, take a look inside my mind


 E
Ooh, oo-ooh, oo-ooh, ooh, oo-ooh, oo-ooh


   D               Am              Em              G
|-2---3---3-2---------2---2-0-------------------------------------|
|-3---3---3-3---------1---1-1-------------------------------------|
|-2---2---2-2---------2---2-2-------------------------------------|
|-0---0---0-0---------2---2-2-------4---3-2---------0---0-2-0---0-|
|---------------------0---0-0-------------------------2-------3---|
|-----------------------------------------------------------------|
Once a lover, never suffer so far away from here


   F#m             A               E
|-----4---4-2-------------------------0---------0-------0---------|
|-----2---2-2-------------------------0---------0-------0---------|
|-----2---2-2---------2---2-2---------1---------2-------1---------|
|-----x---x-x-------2-4---4-2---------2---------2-------2---------|
|---4-4---4-4-----0---0---0-0---------2---------2-------2---------|
|-2---2---2-2-------------------------0---------0-------0---------|
You're feeling hollow, head to toe so low


      D            Bm              F#m             E
|------------------------------10/17------14------12--------------|
|-12/15-------------------------------------------12--------------|
|-----------------------------------------------------------------|
|-----------------------------------------------------------------|
|-----------------------------------------------------------------|
|-----------------------------------------------------------------|


      Bm           F#m             E
|---------14------------14-----------------------------------------------|
|-14/15--------15-14---------14------------------------------------------|
|-------------------------------/13\\\\\\\\\\\\\\\\\\\\\\\\\\\\\---------|
|------------------------------------------------------------------------|
|------------------------------------------------------------------------|
|------------------------------------------------------------------------|


   E
|----12-----12-------12------|
|--9---10-----10-9------9----|
|----------------------------|
|----------------------------|
|----------------------------|
|----------------------------|


A          A Bm   C#m D      Dsus4 D  C     Csus4 C  E            A    A Bm  C#m D Dsus4 
C Csus4 C
  Stay and hijack the hurt, I feel so low, I feel so high, take a look inside my mind


 E
Ooh, oo-ooh, oo-ooh, ooh, oo-ooh, oo-ooh


A          A Bm   C#m D      Dsus4 D  C     Csus4 C  E            A    A Bm  C#m D Dsus4 
C Csus4 C
  Stay and hijack the hurt, I feel so low, I feel so high, take a look inside my mind


 E                                      Eb E
Ooh, oo-ooh, oo-ooh, ooh, oo-ooh, oo-ooh, ooh, oo-ooh, oo-ooh, ooh, oo-ooh, oo-ooh


Eb E                          Eb E                            Eb E
|------------------------------------------------------------------|
|------------------------------------------------------------------|
|--13------------\9--------------/13///////////////////////////16--|
|------------------------------------------------------------------|
|---------------------------------------(Slide up slowly)----------|
|------------------------------------------------------------------|
O------------------------------------------------------------------|
o------------------------------------------------------------------|


Insomnia

   A       F       F#m     D       A       F       F#m     D
|-0---5-4-1---------------2-0-----0---5-4-1-----------0-------5---|
|-------------1---2-----------3---------------1---2-------3-------|
|---------------------2-------------------------------------------|
|-----------------------4-----------------------------------------|
|-----------------------------------------------------------------|
|-----------------------------------------------------------------|


   C#m Cm  Bm  A#m A
|-4---3---2---1---x-------------------------------|
|-------------------------------------------------|
|-------------------------------------------------|
|-------------------------------------------------|
|-------------------------------------------------|
|-------------------------------------------------|


  A                              F#m                              C#m C#7 F#m       D#m  
  D7
Tomorrow will be another part of yesterday, and yesterday will be another part of the 
before


A                            F#m                             C#m   C#7 F#m        D#m    
D7
Wait, I hear another song, insomnia, about the days I wasn't tired and doing that fun 
look


   A       F       F#m     D       A       F       F#m     D
|-0---5-4-1---------------2-0-----0---5-4-1---------------2-0-----|
|-------------1---2-----------3---------------1---2-----------3---|
|---------------------2-------------------------------2-----------|
|-----------------------4-------------------------------4---------|
|-----------------------------------------------------------------|
|-----------------------------------------------------------------|
I stay awake for days, I stay awake for days


   A       F       F#m     D       C#m Cm  Bm  A
|-0---5-4-1-----------0-------5---4---3---2-----------------------------------|
|-------------1---2-------3---------------------------------------------------|
|-----------------------------------------------------------------------------|
|-----------------------------------------------------------------------------|
|-----------------------------------------------------------------------------|
|-----------------------------------------------------------------------------|
But I'd sit awake in a daze anyway, I'm a maze of chains


A                               F#m                                    C#m  C#7  F#m    
     D7
Hey, don't use the term "accomodation," I won't be there for that, and that will never 
there for me


      A                           F#sus4 F# F#m                       C#m   C#7 F#m      
  D#m    D7
And I need to get some sleep slash resolution about the days I wasn't tired and doing 
fun retro thing


   A       F       F#m     D       A       F       F#m     D
|-0---5-4-1---------------2-0-----0---5-4-1---------------2-0-----|
|-------------1---2-----------3---------------1---2-----------3---|
|---------------------2-------------------------------2-----------|
|-----------------------4-------------------------------4---------|
|-----------------------------------------------------------------|
|-----------------------------------------------------------------|
I stay awake for days, I stay awake for days


   A       F       F#m     D       C#m Cm  Bm  A#m
|-0---5-4-1-----------0-------5---4---3---2---1----|
|-------------1---2-------3------------------------|
|--------------------------------------------------|
|--------------------------------------------------|
|--------------------------------------------------|
|--------------------------------------------------|
But I'd sit awake in a daze anyway, I'm a maze of chains


   Am
|-----------------------------------------------------------------|
|---------------------------------x-------------------------------|
|-----5b6r5-----------------------x-------------------------------|
|-----------------------------------------------------------------|
|------^----------------------------------------------------------|
|-----(| Bend and release slowly)---------------------------------|


 Am                       F                                   Em    G         Bsus2
Over in the corner of a circle, I sleep behind this bedroom wall, sing "fun retro look"


     Am                          F                                          Em   G       
   Bsus2
Dine behind a suitcase in an empty room, it's time to leave millions behind, hey, that's 
I took


        B
|----------------|
|----------------|
|----------------|
|----------------|
|--0---0--2--2---|
|----------------|
   Fun retro look


A F F#m D C#m Cm Bm

   A       F       F#m     D       A       F       F#m     D
|-0---5-4-1---------------2-0-----0---5-4-1---------------2-0-----|
|-------------1---2-----------3---------------1---2-----------3---|
|---------------------2-------------------------------2-----------|
|-----------------------4-------------------------------4---------|
|-----------------------------------------------------------------|
|-----------------------------------------------------------------|
I stay awake for days, I stay awake for days


   A       F       F#m     D       C#m Cm  Bm  A#m
|-0---5-4-1-----------0-------5---4---3---2---1----|
|-------------1---2-------3------------------------|
|--------------------------------------------------|
|--------------------------------------------------|
|--------------------------------------------------|
|--------------------------------------------------|
But I'd sit awake in a daze anyway, I'm a maze of chains


   A       F       F#m     D       A       F       F#m     D
|-0---5-4-1---------------2-0-----0---5-4-1---------------2-0-----|
|-------------1---2-----------3---------------1---2-----------3---|
|---------------------2-------------------------------2-----------|
|-----------------------4-------------------------------4---------|
|-----------------------------------------------------------------|
|-----------------------------------------------------------------|
I stay awake for days, I stay awake for days


   A       F       F#m     D       C#m Cm  Bm  A#m
|-0---5-4-1-----------0-------5---4---3---2---1----|
|-------------1---2-------3------------------------|
|--------------------------------------------------|
|--------------------------------------------------|
|--------------------------------------------------|
|--------------------------------------------------|
But I'd sit awake in a daze anyway, I'm a maze of chains


 ---------------------------------------------------------------------

All Across The World (Standard Tuning EADGBE)

   Am      E                       Am      E
|---------------------------------------------------------|
|---------------------------------------------------------|
|-----------------------------------------2---1-----------|
|-4-2-0-----------------------------0-2-4---------4---2---|
|-------3-2-------------------0-2-3-----------------------|
|---------------------------------------------------------|


   C#m             G#m             G#7             C#m     C#7
|-----------------------------------------------------------------|
|-----------------------------------------------------------------|
|-----------------1---------------2---1---------------1---0-------|
|-----------1-2-4-----------1-0-1---------4---1---2---------3-1---|
|-4-----3-4-----------------------------------------------------4-|
|-----------------------------------------------------------------|


   G#m     G#7     E       Asus2   E
|-----------------------------------------|
|-----------------------------------------|
|-----------------------------------------|
|-------------1---------------------------|
|-2-------3-4-----2-----------------------|
|-------4---------------------------------|


   Am       E                      Am       E
|-5-5-5-5-----4-------4-------4---------------4-------4---|
|-5-5-5-5-----5-------5-------5-------5-------5-------5---|
|-5-5-7-5-----4-------4-------4---------------4-------4---|
|-7-7-7-7--6--6-------6-------6-----7---------6-------6---|
|-7-7-7-7--7--7-------7-------7---7--------7--7-------7---|
|-5-5-5-5-------------------------------------------------|
Underneath the shelf, cracks appear in thick enamel in this


   C#m             G#m             G#7             C#m     C#7
|-----4-------4---4-4-4-4-4-4-4-4-4-4-4-4-4-4-44444---4---4-4-4-4-|
|-----5-------5---4-4-4-4-4-4-4-4-4-4-4-4-4-4-44445---5---6-6-6-6-|
|-----6-------6---4-4-4-4-4-4-4-4-5-5-5-5-5-5-55556---6---4-4-4-4-|
|-----6-------6---6-6-6-6-6-6-6-6-4-4-4-4-4-4-44446---6---6-6-6-6-|
|-----4-------4---6-6-6-6-6-6-6-6-6-6-6-6-6-6-66664---4---4-4-4-4-|
|-----------------4-4-4-4-4-4-4-4-4-4-4-4-4-4-4444----------------|
Lap's excuse for wasting time, I wait for signal shooting stars, I'd scrape through every


   G#m     G#7     E       Asus2   E
|-4---4---4-4-4-4-------------------------|
|-4---4---4-4-4-4-------------5-----------|
|-4---4---5-5-5-5-----4-----4---4-----4---|
|-6---6---4-4-4-4---6---6-7---------6-----|
|-6---6---6-6-6-6-7---------------7-------|
|-4---4---4-4-4-4-------------------------|
Branch, 'cause I need to come down


   Am       E                      Am       E
|-5-5-5-5-----4-------4-------4---------------4-------4-4-|
|-5-5-5-5-----5-------5-------5---------------5-------5-5-|
|-5-5-7-5-----4-------4-------4-------5-------4-------4-4-|
|-7-7-7-7-----6-------6-------6-----7---------6-----6-6-6-|
|-7-7-7-7-----7-------7-------7---7-----------7-------7-7-|
|-5-5-5-5-------------------------------------------------|
Underneath the home, I lived in I was a page in someone's


   C#m             G#m             G#7             C#m     C#7
|-----4-------4---4-4-4-4-4-4-4-4-4-4-4-4-4-4-44444---4---4-4-4-4-|
|-----5-------5---4-4-4-4-4-4-4-4-4-4-4-4-4-4-44445---5---6-6-6-6-|
|-----6-------6---4-4-4-4-4-4-4-4-5-5-5-5-5-5-55556---6---4-4-4-4-|
|-----6-------6---6-6-6-6-6-6-6-6-4-4-4-4-4-4-44446---6---6-6-6-6-|
|-4---4---4---4---6-6-6-6-6-6-6-6-6-6-6-6-6-6-66664---4---4-4-4-4-|
|-----------------4-4-4-4-4-4-4-4-4-4-4-4-4-4-4444----------------|
Book, and no one asked me why the page was fifteen storeys high, I'm underneath that


   G#m     G#7     E       Asus2   E       Asus2
|-4---4---4-4-4-----------------------------------|
|-4---4---4-4-4---------------5---------------5---|
|-4---4---5-5-5-------4-----4---4-----4-----4---4-|
|-6---6---4-4-4-----6---6-7---------6---6-7-------|
|-6---6---6-6-6---7---------------7---------------|
|-4---4---4-4-4-----------------------------------|
Home, and wondering why


   E       Asus2   E
|-------------------------|
|-------------5-----------|
|-----4-----4---4-----4---|
|---6---6-7---------6-----|
|-7---------------7-------|
|-------------------------|
Ooooooooooooh


   Am       E                      Am       E
|-5---5----4--4-------4-------4-4-5-5-5-----------4---4---|
|-5---5----5--5-------5-------5-5-5-5-5-----------5---5---|
|-5---5----4--4-------4-------4-4-5-5-5-----------4---4---|
|-7---7----6--6-------6-------6-6-7-7-7-----------6---6---|
|-7---7----7--7-------7-------7-7-7-7-7-----------7---7---|
|-5---5---------------------------5-5-5-------------------|
All across the world there are things we need to forget and for-


   C#m             G#m             G#7             C#m     C#7
|-4---4-------4---4-4-4-4-4-4-4-4-4-4-4-4-4-4-44444---4---4-4-4-4-|
|-5---5-------5---4-4-4-4-4-4-4-4-4-4-4-4-4-4-44445---5---6-6-6-6-|
|-6---6-------6---4-4-4-4-4-4-4-4-5-5-5-5-5-5-55556---6---4-4-4-4-|
|-6---6-------6---6-6-6-6-6-6-6-6-4-4-4-4-4-4-44446---6---6-6-6-6-|
|-4---4-------4---6-6-6-6-6-6-6-6-6-6-6-6-6-6-66664---4---4-4-4-4-|
|-----------------4-4-4-4-4-4-4-4-4-4-4-4-4-4-4444----------------|
Give, sometimes we have to try and shed the damage we don't need, oh justice shake your


   G#m     G#7     E       Asus2   E
|-4---4---4-4-4---------------------------|
|-4---4---4-4-4---------------5-----------|
|-4---4---5-5-5-------4-----4---4-----4---|
|-6---6---4-4-4-----6---6-7---------6-----|
|-6---6---6-6-6---7---------------7-------|
|-4---4---4-4-4---------------------------|
Head, I'm wasting my time


   Am       E                      Am       E
|-------------4-------4-------4---------------4-------4-4-|
|-------------5-------5-------5-------5-------5-------5-5-|
|-5-5-7-5--4--4-------4-------4---------------4-------4-4-|
|-7-7-7-7--6--6-------6-------6-----7---------6-------6-6-|
|-7-7-7-7--7--7---7---7---7---7---7-----------7-------7-7-|
|-5-5-5-5-------------------------------------------------|
We can break this drought, wanna tell you that I love you, I need you in the


   C#m             G#m             G#7             C#m     C#7
|-----4-------4---4-4-4-4-4-4-4-4-4-4-4-4-4-4-44444---4---4-4-4-4-|
|-----5-------5---4-4-4-4-4-4-4-4-4-4-4-4-4-4-44445---5---6-6-6-6-|
|-----6-------6---4-4-4-4-4-4-4-4-5-5-5-5-5-5-55556---6---4-4-4-4-|
|-----6-------6---6-6-6-6-6-6-6-6-4-4-4-4-4-4-44446---6---6-6-6-6-|
|-----4-------4---6-6-6-6-6-6-6-6-6-6-6-6-6-6-66664---4---4-4-4-4-|
|-----------------4-4-4-4-4-4-4-4-4-4-4-4-4-4-4444----------------|
Night, sometimes I get so full, I wanna tell you I'm feeling alright, I'm shaken to the


   G#m     G#7     E       Asus2   E       Asus2
|-------------------------------------------------|
|-----------------------------5---------------5---|
|---------5-----------4-----4---4-----4-----4---4-|
|---------4-4-------6---6-7---------6---6-7-------|
|---------6-------7---------------7---------------|
|-4-------4---------------------------------------|
Bone, and on my way home


   E       Asus2   E
|-------------------------|
|-------------5-----------|
|-----4-----4---4-----4---|
|---6---6-7---------6-----|
|-7---------------7-------|
|-------------------------|
Ooooooooooooh

BRIDGE GUITAR PART ONE:


   G#m             A#              A               E       Asus2
|-----------------------------------------------------------------|
|---------------------3-------------------------4-------------5---|
|-------------------3-----5---4-------6-4-6-5-6-------4-----4-----|
|-----6---5---4---3-----------------7---------------6---6-7-------|
|---6---6---6---6-----------------7---------------7---------------|
|-4---------------------------------------------------------------|
Adjust an omen at the door, so baby won't you please get a hold without it


   G#m             A#              A               E       Asus2
|-----------------------------------------------------------------|
|---------------------3-------------------------4-------------5---|
|-------------------3-----5---4-------6-4-6-5-6-------4-----4-----|
|-----6---5---4---3-----------------7---------------6---6-7-------|
|---6---6---6---6-----------------7---------------7---------------|
|-4---------------------------------------------------------------|
And while you sit there on the phone telling me baby I'm a liar


   G#m             A#              A               E       Asus2   E
|-------------------------------------------------------------------------|
|---------------------3-------------------------4-------------5-----------|
|-------------------3-----5---4-------6-4-6-5-6-------4-----4---4-----4---|
|-----6---5---4---3-----------------7---------------6---6-7---------6-----|
|---6---6---6---6-----------------7---------------7---------------7-------|
|-4-----------------------------------------------------------------------|
You don't seem to care what I care about and baby it's a shame (to be wasted)

BRIDGE GUITAR PART TWO
(the same as part one except for the last three notes, for which he which uses a bottle 
(as in, slide guitar)):

   G#m             A#              A               E       Asus2
|-----------------------------------------------------------------|
|---------------------3-------------------------4-------------5---|
|-------------------3-----5---4-------6-4-6-5-6-------4-----4-----|
|-----6---5---4---3-----------------7---------------6---6-7-------|
|---6---6---6---6-----------------7---------------7---------------|
|-4---------------------------------------------------------------|
Adjust an omen at the door, so baby won't you please get a hold without it


   G#m             A#              A               E       Asus2
|-----------------------------------------------------------------|
|---------------------3-------------------------4-------------5---|
|-------------------3-----5---4-------6-4-6-5-6-------4-----4-----|
|-----6---5---4---3-----------------7---------------6---6-7-------|
|---6---6---6---6-----------------7---------------7---------------|
|-4---------------------------------------------------------------|
And while you sit there on the phone telling me baby I'm a liar


   G#m             A#              A               E       Asus2   E
|-------------------------------------------------12------19------24------|
|---------------------3-------------------------4-----------------24------|
|-------------------3-----5---4-------6-4-6-5-6---------------------------|
|-----6---5---4---3-----------------7-------------------------------------|
|---6---6---6---6-----------------7---------------------------------------|
|-4-----------------------------------------------------------------------|
You don't seem to care what I care about and baby it's a shame (to be wasted)

BRIDGE GUITAR PART THREE
(slide guitar):

   G#m             A#              A               E       Asus2
|-4------/11------10------13------14------5-------4---------------|
|-----------------------------------------------------------------|
|-----------------------------------------------------------------|
|-----------------------------------------------------------------|
|-----------------------------------------------------------------|
|-----------------------------------------------------------------|
Adjust an omen at the door, so baby won't you please get a hold without it


   G#m             A#              A               E       Asus2
|-4------/11------10------13------14------17------16--------------|
|-----------------------------------------------------------------|
|-----------------------------------------------------------------|
|-----------------------------------------------------------------|
|-----------------------------------------------------------------|
|-----------------------------------------------------------------|
And while you sit there on the phone telling me baby I'm a liar


   G#m             A#              A               E       Asus2   E
|-4------/11------10------13------14------17------19-------------/24------|
|-------------------------------------------------------------------------|
|-------------------------------------------------------------------------|
|-------------------------------------------------------------------------|
|-------------------------------------------------------------------------|
|-------------------------------------------------------------------------|
You don't seem to care what I care about and baby it's a shame (to be wasted)


   Am       E                      Am       E
|-5---5----4--4-------4-------4-------5-------4-------4-4-|
|-5---5----5--5-------5-------5-------5-------5-------5-5-|
|-5---5----4--4-------4-------4-------5-------4-------4-4-|
|-7---7----6--6-------6-------6-------7-------6-------6-6-|
|-7---7----7--7-------7-------7-------7-------7-------7-7-|
|-5---5-------------------------------5-------------------|
All across the world there are things we need to forget and for-


   C#m             G#m             G#7             C#m     C#7
|-----4-------4---4-4-4-4-4-4-4-4-4-4-4-4-4-4-44444---4---4-4-4-4-|
|-----5-------5---4-4-4-4-4-4-4-4-4-4-4-4-4-4-44445---5---6-6-6-6-|
|-----6-------6---4-4-4-4-4-4-4-4-5-5-5-5-5-5-55556---6---4-4-4-4-|
|-----6-------6---6-6-6-6-6-6-6-6-4-4-4-4-4-4-44446---6---6-6-6-6-|
|-----4-------4---6-6-6-6-6-6-6-6-6-6-6-6-6-6-66664---4---4-4-4-4-|
|-----------------4-4-4-4-4-4-4-4-4-4-4-4-4-4-4444----------------|
Give, sometimes we have to try and shed the damage we don't need, oh justice shake your


   G#m     G#7     E       Asus2   E
|-4---4---4-4-4-----------------------------------|
|-4---4---4-4-4---------------5---------------5---|
|-4---4---5-5-5-------4-----4---4-----4-----4---4-|
|-6---6---4-4-4-----6---6-7---------6---6-7-------|
|-6---6---6-6-6---7---------------7---------------|
|-4---4---4-4-4-----------------------------------|
Head, I'm on my way home


   E       Asus2   E       Asus2   E      Asus2    E       Asus2
|-----------------------------------------------------------------|
|-------------5---------------5---------------5---------------5---|
|-----4-----4---4-----4-----4---4-----4-----4---4-----4-----4---4-|
|---6---6-7---------6---6-7---------6---6-7---------6---6-7-------|
|-7---------------7---------------7---------------7---------------|
|-----------------------------------------------------------------|
Ooooooooooooooooh, ooooooooooh, ooooooooooooooooh, ooooooooooh

   E       Asus2   E
|-----------------4-------|
|-----------------5-------|
|-4-4-4-4-4-4-4-4-4-------|
|-6-6-6-6-7-7-7-7-6-------|
|-7-7-7-7-7-7-7-7-7-------|
|-------------------------|
Oooooooooooooooooooooh
Related for Young Modern tab