Song name
# A B C D E F G H I J K L M N O P Q R S T U V W X Y Z

Silverchair - Acid Rain tab

Help us improve GuitareTab! Take a short survey!
SILVERCHAIR
ACID RAIN
TOMORROW EP
STANDARD TUNING - E A D G B E
Transcribed by Neil Cabatingan
------------------------------

INTRO:
            G            F#   A
e|--------------------------------|
B|--------------------------------|
G|----------------------------2~--|
D|--x-x--5-5-5-5-5--x-x--4-4--2~--|
A|--x-x--5-5-5-5-5--x-x--4-4--0~--|
E|--x-x--3-3-3-3-3--x-x--2-2------|

e|-----------------------|
B|-----------------------| x3
G|-----------------------|
D|-----------------------|
A|----------5-------5h7--|
E|--0-0-5h7---0-5h7------|

e|-------------------------|
B|-------------------------| 
G|-------------------------|
D|----------------x-x-x-0--|
A|----------5--///x-x-x-0--|
E|--0-0-5h7----///x-x-x-0--|

VERSE:
    E   G   D
e|------3~--2~--|
B|------3~--3~--| - chord shapes
G|--1~--0~--2~--|
D|--2~--0~--0~--|
A|--2~--2~------|
E|--0~--3~------|

E     
Falls down slowly,
G                D
Seeps into the ground,
E                     
Isn't just flowing water,
G                      D
Won't stop until your brain is found.

   G           F#   A
e|----------------------|
B|----------------------|
G|------------------2~--|
D|--5-5-5-5-5--4-4--2~--|
A|--5-5-5-5-5--4-4--0~--|
E|--3-3-3-3-3--2-2------|

VERSE 2:
E                    
Seeps into your little green eyes,
G                    D
'til it meets your brain,
E                               
Runnin' through all of your brain cells,
G                    D
'til it drives you insane.

   G           F#   A
       Acid...Acid Rain
e|----------------------|
B|----------------------|
G|------------------2~--|
D|--5-5-5-5-5--4-4--2~--|
A|--5-5-5-5-5--4-4--0~--|
E|--3-3-3-3-3--2-2------|

e|-----------------------|------------------|
B|-----------------------|------------------|
G|-----------------------|------------------|
D|-----------------------|-------------x-x--|
A|----------5-------5h7--|----------5--x-x--|
E|--0-0-5h7---0-5h7------|--0-0-5h7----x-x--|

       Acid...Acid Rainnnnn
e|----------------------|
B|----------------------|
G|------------------2~--|
D|--5-5-5-5-5--4-4--2~--|
A|--5-5-5-5-5--4-4--0~--|
E|--3-3-3-3-3--2-2------|

CHORUS:(strum chords)
E    G    D          E      G    D     
          Falls down slowly,
E                G
Seeps into your mind,
D           E      G     D
Falls down slowly  

e|-----------------------|
B|-----------------------| x3
G|-----------------------|
D|-----------------------|
A|----------5-------5h7--|
E|--0-0-5h7---0-5h7------|

e|-------------------------|
B|-------------------------| 
G|-------------------------|
D|----------------x-x-x-0--|
A|----------5--///x-x-x-0--|
E|--0-0-5h7----///x-x-x-0--|

VERSE 3:(repeat verse 2)

CHORUS 

GUITAR SOLO:

e|---------------------------------|
B|---------------------------------|
G|--------------------------12-----| x3
D|--12h14-14-14-12h14-14-14----14--|
A|---------------------------------|
E|---------------------------------|

e|------------------------------------|
B|------------------------------------|
G|--------------------------12h14-12--| 
D|--12h14-14-14-12h14-14-14-----------|
A|------------------------------------|
E|------------------------------------|

e|---------------------------------|
B|---------------------------------|
G|--------------------------12-----| x3
D|--12h14-14-14-12h14-14-14----14--|
A|---------------------------------|
E|---------------------------------|

e|---------------------------------------------|
B|-----------------12-15-12--------------------|
G|--------------12----------14-----------------| 
D|--12h14-14-14----------------12~---------/14~|
A|---------------------------------------------|
E|---------------------------------------------|

     Acid...Acid Rainnnnn
e|----------------------|
B|----------------------|
G|------------------2~--|
D|--5-5-5-5-5--4-4--2~--|
A|--5-5-5-5-5--4-4--0~--|
E|--3-3-3-3-3--2-2------|

e|-----------------------|------------------|
B|-----------------------|------------------|
G|-----------------------|------------------|
D|-----------------------|-------------x-x--|
A|----------5-------5h7--|----------5--x-x--|
E|--0-0-5h7---0-5h7------|--0-0-5h7----x-x--|

Acid...Acid Rainnnnn
e|----------------------|
B|----------------------|
G|------------------2~--|
D|--5-5-5-5-5--4-4--2~--|
A|--5-5-5-5-5--4-4--0~--|
E|--3-3-3-3-3--2-2------|

e|-----------|
B|--15b(17)--|
G|-----------| x6
D|-----------|
A|-----------|
E|-----------|

e|------------------------|
B|--12h15p12--------------|
G|-----------/14-12/16b~--|
D|------------------------|
A|------------------------|
E|------------------------|

e|-----------------------|------------------|
B|-----------------------|------------------|
G|-----------------------|------------------|
D|-----------------------|-------------x-x--|
A|----------5-------5h7--|----------5--x-x--|
E|--0-0-5h7---0-5h7------|--0-0-5h7----x-x--|

Acid...Acid Rainnnnn
e|----------------------|
B|----------------------|
G|------------------2~--|
D|--5-5-5-5-5--4-4--2~--|
A|--5-5-5-5-5--4-4--0~--|
E|--3-3-3-3-3--2-2------|

e|-----------------------------------------------------------|
B|--15b(17)-15b(17)-15b(17)-15b(17)-15b(17)-15b(17)-15b(17)--|
G|-----------------------------------------------------------|
D|-----------------------------------------------------------|
A|-----------------------------------------------------------|
E|-----------------------------------------------------------|

e|------------------------|
B|--12h15p12--------------|
G|-----------/13b-12b-----|
D|------------------------|
A|------------------------|
E|------------------------|

e|-----------------------------------------------------------|
B|--15b(17)-15b(17)-15b(17)-15b(17)-15b(17)-15b(17)-15b(17)--|
G|-----------------------------------------------------------|
D|-----------------------------------------------------------|
A|-----------------------------------------------------------|
E|-----------------------------------------------------------|

e|------------------------|
B|------------------------|
G|--14p12--14b(15)-12~----|
D|------------------------|
A|------------------------|
E|------------------------|

VERSE 4:(repeat verse 2)

OUTRO:

e|-----------------------|
B|-----------------------| x3
G|-----------------------|
D|-----------------------|
A|----------5-------5h7--|
E|--0-0-5h7---0-5h7------|

e|------------------------|
B|--15b(17)-15b(17)-12----|
G|------------------------|
D|------------------------|
A|------------------------|
E|------------------------|

e|-----------------------|
B|-----------------------| x3
G|-----------------------|
D|-----------------------|
A|----------5-------5h7--|
E|--0-0-5h7---0-5h7------|

end on

e|------------------------|
B|------------------------|
G|--14b--14b--14b-12~-14--|
D|------------------------|
A|------------------------|
E|------------------------|
Related for Acid Rain tab