Song name
# A B C D E F G H I J K L M N O P Q R S T U V W X Y Z

Silverchair - Leave Me Out tab

PM-palm mute
/-slide up
h-hammer
^(1/2)-half step bend 
x-muffled strings

*Tuning*--Dropped D 

distortion 
Fig 1-intro
E|-----------------------------------------|
B|-----------------------------------------|
G|-----------------------------------------|
D|-3-3-3-3--3-3-3-3--5-5-5-5--5-5-5-5------|
A|-1-1-1-1--1-1-1-1--3-3-3-3--3-3-3-3------|
D|------------------------------------0----|

Fig 2-verse
E|----------------------------|
B|----------------------------|
G|----------------------------|
D|--0-0--0---5-0-3-----7-6-5--|
A|--0-0--0---5-0-3-----5-4-3--|
D|--0-0--0---5-0-3-0-0--------|
         PM        P M
                                
Fig 3-play after verse
E|-------------------------------------|
B|-------------------------------------|
G|-5-5-5-5--5-5-5----------------------|
D|-5-5-5-5--5-5-5-0--5-5-5-0--3-0-2h3--|
A|-3-3-3-3--3-3-3-0--5-5-5-0--3-0-2h3--|
D|-------------------5-5-5-0--3-0-2h3--|

Fig 4-chorus
E|----------------------------------|
B|----------------------------------|
G|--7-7-7-7------4------------------|
D|--7-7-7-7--x-x-4-3--0--3h5-5-0----|
A|--5-5-5-5--x-x-2-3--0--3h5-5-0----|
D|-----------------3--0--3h5-5-0----|


Fig 5-brief solo
E|----------------------------------------|
B|-10-10-10-12^(1/2)p10-12^(1/2)--10-9-8--|
G|----------------------------------------|  repeat
D|----------------------------------------|
A|----------------------------------------|
D|----------------------------------------|

Fig5-Interlude
E|-----------------------------|
B|-----------------------------|
G|--------------------------8--|
D|-0--0-0-5-0-0-3-0-0-5-0-0-8--|
A|-0--0-0-5-0-0-3-0-0-5-0-0-6--|
D|-0--0-0-5-0-0-3-0-0-5-0-0----|

E|-----------------------------|
B|-----------------------------|
G|-----------------------------|
D|-0--0-0-2-0-0-2-0-0-2-0-0-3--|
A|-0--0-0-2-0-0-2-0-0-2-0-0-3--|
D|-0--0-0-2-0-0-2-0-0-2-0-0-3--|
          PM__|   P M   P M

E|-----------------------------|
B|-----------------------------|
G|--------------------------8--|
D|-0--0-0-5-0-0-3-0-0-5-0-0-8--|
A|-0--0-0-5-0-0-3-0-0-5-0-0-6--|
D|-0--0-0-5-0-0-3-0-0-5-0-0-6--|

E|-----------------------------|
B|-----------------------------|
G|-----------------------------|
D|-0--0-0-2-3-3-2-0-0-5-0-0-3--|
A|-0--0-0-2-3-3-2-0-0-5-0-0-3--|
D|-0--0-0-2-3-3-2-0-0-5-0-0-3--|
      P M   P M   P M   P M

E|--------------------------------|
B|--------------------------------|
G|--------------------------------|
D|-3h5-5-5-5--5-5-3h5-5-5-5--5-0--|
A|-3h5-5-5-5--5-5-3h5-5-5-5--5-0--|
D|-3h5-5-5-5--5-5-3h5-5-5-5--5-0--|

E|------------------------------|
B|------------------------------|
G|------------------------------|
D|-1h3--3-3--3-3-1h3--3-3--3-0--|
A|-1h3--3-3--3-3-1h3--3-3--3-0--|
D|-1h3--3-3--3-3-1h3--3-3--3-0--|

E|--------------------------------|
B|--------------------------------|
G|--------------------------------|
D|-3h5-5-5-5--5-5-3h5-5-5-5--5-5--|
A|-3h5-5-5-5--5-5-3h5-5-5-5--5-5--|
D|-3h5-5-5-5--5-5-3h5-5-5-5--5-5--|

E|------------------------------|
B|------------------------------|
G|------------------------------|
D|-5/6--6-6--6-6-6/8-8-8-8-7-6--|
A|-5/6--6-6--6-6-6/8-8-8-8-7-6--|
D|-5/6--6-6--6-6-6/8-8-8-8-7-6--|
Tap to rate this tab
# A B C D E F G H I J K L M N O P Q R S T U V W X Y Z