Song name
# A B C D E F G H I J K L M N O P Q R S T U V W X Y Z

Silverchair - Blind tab

this song can be found on the "tommorow" ep. i think it is also on "the cable guy" soundtrack.it will pay to learn it along with the track so you know which riffs go where and for how long



tuning- dropped d



riff 1


e-------------------------------------------------------------
b-------------------------------------------------------------
g--------------------------5---------------4------------------
d----------0-----------5---------------4----------------------
a------0-----------3-----------3---2-----------5-----0---3----
e--0-----------0-------------------------------5-----0---3---- 



riff 2


e-------------------------------------------------
b-------------------------------------------------
g-------------------------------------------------
d-------------------------------------------------
a--0------0---2---3------------0------0---2---3---
e--0------0---2---3------------0------0---2---3---



riff 3


e-------------------------------------------------------------------------------
b-------------------------------------------------------------------------------
g-------------------------------------------------------------------------------
d-------------------------------------------------------------------------------
a--0----0---0--0---0--0--0---0--6-----0----0---0--0---0--0--0---0--3------------
e--0----0---0--0---0--0--0---0--6-----0----0---0--0---0--0--0---0--3------------



riff 4


e-------------------------------------------------------------------------------
b-------------------------------------------------------------------------------
g-------------------------------------------------------------------------------
d-------------------------------------------------------------------------------
a--0-----0---2--3----0--0---0---2--3---3--0-----0---2--3----0----0---0--6---5---
e--0-----0---2--3----0--0---0---2--3---3--0-----0---2--3----0----0---0--6---5---



if you have suggestions could you please mail them to bjasnos@hotmail.com. thanks
Tap to rate this tab
# A B C D E F G H I J K L M N O P Q R S T U V W X Y Z