Song name
# A B C D E F G H I J K L M N O P Q R S T U V W X Y Z

Silverchair - Leave Me Out tab

i know this tab is correct because i play it with the song all the time 
band: silverchair
album: frogstomp
tuning: standard low(e,a,d,g,b,e,)high
hammer = h
bend = b
palm mute = ()
if there are any problems e-mail me at DcircaC07@aol.com

intro
g)-3-3-3-3-3-3-3-3-5-5-5-5-5-5-5-5----
d)-3-3-3-3-3-3-3-3-5-5-5-5-5-5-5-5----
a)-1-1-1-1-1-1-1-1-3-3-3-3-3-3-3-3----
e)------------------------------------

verse
g)----------------------------7-6-5----
d)-0---0-(0-0)-5--0--3--(0-0)-7-6-5----
a)-0---0-(0-0)-5--0--3--(0-0)-5-4-3----
e)-0---0-(0-0)-5--0--3--(0-0)----------

end verse 1
g)-5-5-5-5-5-5-5-5-3-3-3-3---------------
d)-5-5-5-5-5-5-5-5-3-3-3-3--0-3-0-2-3----
a)-3-3-3-3-3-3-3-3-1-1-1-1--0-3-0-2-3----
e)--------------------------0-3-0-2-3----

end verse 2
g)-(5-5-5-5-5-5-5-5-4-4-4-4)----------
d)-(5-5-5-5-5-5-5-5-4-4-4-4)-5-3-0----
a)-(3-3-3-3-3-3-3-3-2-2-2-2)-5-3-0----
e)---------------------------5-3-0----

chorus
g)-7-7-7-7-----4------------------
d)-7-7-7-7-(0)-4--3--0-3-0-2-3----
a)-5-5-5-5-(0)-2--3--0-3-0-2-3----
e)---------(0)----3--0-3-0-2-3----

solo
e)-----------------------------------
b)-10-10---10-12b-10-12b---10-9-8----
g)-----------------------------------

other part 1
d)-0--0-0-5-0-0-3-0-0-5-0-0-3----
a)-0--0-0-5-0-0-3-0-0-5-0-0-3----
e)-0--0-0-5-0-0-3-0-0-5-0-0-3----
the 2 and 4 time you play this play all the opens palm muted

other part 2
d)-4h5-5-5-4h5-5-5-4h5-5-5-4h5-5-5-6h7-7-7-6h7-7-7-6h7-7-7-6h7-7-7-4h5-5-5----
a)-4h5-5-5-4h5-5-5-4h5-5-5-4h5-5-5-6h7-7-7-6h7-7-7-6h7-7-7-6h7-7-7-4h5-5-5----
e)-4h5-5-5-4h5-5-5-4h5-5-5-4h5-5-5-6h7-7-7-6h7-7-7-6h7-7-7-6h7-7-7-4h5-5-5----

d)-4h5-5-5-4h5-5-5-4h5-5-5-4h5-8-8--8-8--8-8-8-8-8-8-8-8-5-3-0---------
a)-4h5-5-5-4h5-5-5-4h5-5-5-4h5-8-8--8-8--8-8-8-8-8-8-8-8-5-3-0-silence-
e)-4h5-5-5-4h5-5-5-4h5-5-5-4h5-6-6--6-6--6-6-6-6-6-6-6-6-5-3-0---------

song order
intro - 1x
verse - 9x
end verse 1 - 1x
verse - 4x
end verse 2 - 1x
chorus - 4x
end verse 2 - 1x
verse - 4x
solo - 4x
chorus - 4x
end verse 2 - 1x
other part 1 - 4x
other part 2 - 1x
chorus - 4x
end verse 2 - 1x
Tap to rate this tab
# A B C D E F G H I J K L M N O P Q R S T U V W X Y Z