Song name
# A B C D E F G H I J K L M N O P Q R S T U V W X Y Z

Silverchair - Miss You Love Live tab

---------------------------------------------------------------------------------------
	            Miss You Love Live From Faraway Stables - Silverchair
---------------------------------------------------------------------------------------
Tabbed by:qzuiilw
Email:qzuiilw@hotmail.com

Tuning: Standard

   Okay so I know there are already versions of Miss You Love on here but I thought I'd 
a live tab up.
Silverchair live from faraway stables in newcastle, it's on youtube if you don't own the 
dvd/cd.
If your a fan of silverchair you should get dvd if you don't already have it.
This is different to the recording and has an awesome little solo.

     Millonaires Say
|---------------------------------------------------------------------------|
|---------------3------3------3-------3-------3-------3------3-----3--------|
|-x-xxx-xx-------0----0-0------0-----0-0-------0-----0-0----0-0---0-0-------|x2
|-x-xxx-xx----2---2------2------0-------0---2---2---2---0--2---3-2---2------|
|-x-xxx-xx---3------3-------2------2-------3------3-------3-----3-----------|
|-x-xxx-xx-----------------3------3-----------------------------------------|
   I'm Not,    Not Sure
|---------------------------------------|
|-----3------3------3-----3-------------|
|------0------2----0-0---0-0------------|
|---2---0--0---0--2---0-----0-----------|
|--3-------------3----------------------|
|---------3-------------3---------------|
                    To Handle Every Day
|-------------------------------------------------------------|
|-----1------1------1------1-------0------0------0------0-----|
|------2------2------2------2-------0------0------0------0----|
|---2---2--2---2--2---2--2---2---2---2--2---2--2---2--2---2---|
|--0------0------0------0-------0------0------0------0--------|
|-------------------------------------------------------------|
  Miss    You     Love
|---------------------------------------|
|--3-3----0---0----------------2h3p2----|
|--2--2---2----2---1~---------------2---|
|--0---0--2-2---2--2~-----%----------2--|
|------------------2~-------------------|
|---------------------------------------|
Make Room For The Pray
|------------------------------------------3-2-0-2-3----------|
|----3-------3------3------3------3---3h1--3-3-3-3-3----------|
|----0-------0------0------0------0---0-0--2-2-2-2-2----------|x2
|--2---2---2---2--2---2--2---2--------------------------------|
|-3-------3------3------3--------2----------------------------|
|-------------------------------3-----------------------------|
   I'm Not,    Not Sure
|---------------------------------------|
|-----3------3------3-----3-------------|
|------0------2----0-0---0-0------------|
|---2---0--0---0--2---0-----0-----------|
|--3-------------3----------------------|
|---------3-------------3---------------|
                    To Handle Every Day
|-------------------------------------------------------------|
|-----1------1------1------1-------0------0------0------0-----|
|------2------2------2------2-------0------0------0------0----|
|---2---2--2---2--2---2--2---2---2---2--2---2--2---2--2---2---|x2
|--0------0------0------0-------0------0------0------0--------|
|-------------------------------------------------------------|
 Crowds With All The People
|-----------------------|
|--3-3----0---0---------|
|--2--2---2----2---1~---|
|--0---0--2-2---2--2~---|
|------------------2~---|
|-----------------------|
Remeber To Day
|-------------------------------------------------------------|
|-2-2222-2--2-2-----------------2-2222-2--2-2-----------------|
|-2-2222-2--2-2--0-0000-0--0-0--2-2222-2--2-2--0-0000-0--0-0--|
|-2-2222-2--2-2--2-2222-2--2-2--2-2222-2--2-2--2-2222-2--2-2--|
|-0-0000-0--0-0--2-2222-2--2-2--0-0000-0--0-0--2-2222-2--2-2--|
|----------------0-0000-0--0-0-----------------0-0000-0--0-0--|
 And I Miss You Love
|------------------------------------------------------------------------------|
|-3-333-3--0-000-0-----------------------3-333-3--0-000-0----------------------|
|-2-222-2--2-222-2--1-111-1--1-111-1--1--2-222-2--2-222-2--1-111-1--1-111x1-x1-|
|-0-000-0--2-222-2--2-222-2--2-222-2--2--0-000-0--2-222-2--2-222-2--2-222x2-x2-|
|----------0-000-0--2-222-2--2-222-2--2-----------0-000-0--2-222-2--2-222x2-x2-|
|-------------------0-000-0--0-000-0--0--------------------0-000-0--0-000x0-x0-|
Solo:
|---------------------------------------------------------------------------|
|---------------------------------------------------------------------------|
|---------------------------------------------------------------------------|
|-2/4-4/5-7-7/9-10-10-12-12*-12-10h12b10h12-12-12---------------------------|
|---------------------------------------------------------------------------|
|---------------------------------------------------------------------------|

|---------------------------------------------------------------------------|
|---------------------------------------------------------------------------|
|-9--9-9--11--11--12p11-12b--11h12p11~-11h12p11~----------------------------|
|---------------------------------------------------------------------------|
|---------------------------------------------------------------------------|
|---------------------------------------------------------------------------|

|---------------------------------------------------------------------------|
|---------------------------------------------------------------------------|
|---9-9h11p9\7h9\5h4/5~~----------------------------------------------------|
|-----------------------------h8~-------------------------------------------|
|----------------------------------h7~p5~feedback---------------------------|
|---------------------------------------------------<-<-<-<-<---------------|
 It's Just
|-------------------------------------------------------|
|-------------------------------------------------------|
|----------------------------7xxx777x7x7--7xxx777x5x5---|
|---5xxx555x5x5-5xxx555x5x5--7xxx777x7x7--7xxx777x5x5---|
|---5xxx555x5x5-5xxx555x5x5--5xxx555x5x5--5xxx555x3x5---|
|---3xxx333x3x3-3xxx333x3x3-----------------------------|
   I'm Not,    Not Sure
|---------------------------------------|
|-----3------3------3-----3-------------|
|------0------2----0-0---0-0------------|
|---2---0--0---0--2---0-----0-----------|x2
|--3-------------3----------------------|
|---------3-------------3---------------|
           How It Feels
|-------------------------------------------------------------|
|-----1------1------1------1-------0------0------0------0-----|
|------2------2------2------2-------0------0------0------0----|
|---2---2--2---2--2---2--2---2---2---2--2---2--2---2--2---2---|
|--0------0------0------0-------0------0------0------0--------|
|-------------------------------------------------------------|

|---------------------------------------|
|-----3------3------3-----3-------------|
|------0------2----0-0---0-0------------|
|---2---0--0---0--2---0-----0-----------|x2
|--3-------------3----------------------|
|---------3-------------3---------------|
 Crowds With All The People
|-----------------------|
|--3-3----0---0---------|
|--2--2---2----2---1~---|
|--0---0--2-2---2--2~---|
|------------------2~---|
|-----------------------|
Remember Today
|---------------------------------------------------------------------------|
|----3-3--------3-3--------3-3--------3-3--------3-3--------3-3-------------|
|----0-0--------0-0--------0-0--------0-0--------0-0--------0-0-------------|
|--2-2-2-2----2-2-2-2----2-2-2-2----2-2-2-2----2-2-2-2------0-0-------------|
|-3--3-3--3--3--3-3--3--3--3-3--3--3--3-3--3--3--3-3------2-2-2-2-----------|
|--------------------------------------------------------3--3-3--3----------|
And I Miss You Love
|------------------------------------------------------------------------------|
|-3-333-3--0-000-0-----------------------3-333-3--0-000-0----------------------|
|-2-222-2--2-222-2--1-111-1--1-111-1--1--2-222-2--2-222-2--1-111-1--1-111x1-x1-|
|-0-000-0--2-222-2--2-222-2--2-222-2--2--0-000-0--2-222-2--2-222-2--2-222x2-x2-|
|----------0-000-0--2-222-2--2-222-2--2-----------0-000-0--2-222-2--2-222x2-x2-|
|-------------------0-000-0--0-000-0--0--------------------0-000-0--0-000x0-x0-|
And I Miss You Love
|-------------------------------------------------------------|
|-2-2222-2--2-2-----------------2-2222-2--2-2-----------------|
|-2-2222-2--2-2--0-0000-0--0-0--2-2222-2--2-2--0-0000-0--0-0--|
|-2-2222-2--2-2--2-2222-2--2-2--2-2222-2--2-2--2-2222-2--2-2--|
|-0-0000-0--0-0--2-2222-2--2-2--0-0000-0--0-0--2-2222-2--2-2--|
|----------------0-0000-0--0-0-----------------0-0000-0--0-0--|
And I Miss You Love
|------------------------------------------------------------------------------|
|-3-333-3--0-000-0-----------------------3-333-3--0-000-0----------------------|
|-2-222-2--2-222-2--1-111-1--1-111-1--1--2-222-2--2-222-2--1-111-1--1-111x1-x1-|
|-0-000-0--2-222-2--2-222-2--2-222-2--2--0-000-0--2-222-2--2-222-2--2-222x2-x2-|
|----------0-000-0--2-222-2--2-222-2--2-----------0-000-0--2-222-2--2-222x2-x2-|
|-------------------0-000-0--0-000-0--0--------------------0-000-0--0-000x0-x0-|

|-----0--------|
|-----0-0------|
|--0h2---2p0---|
|--------------|
|--------------|
|--------------|
 I Love The Way
|-------------------------------------------------------------------|
|-------3------3------3-------3-------3-------3------3-----3--------|
|--------0----0-0------0-----0-0-------0-----0-0----0-0---0-0-------|x2
|-----2---2------2------0-------0---2---2---2---0--2---3-2---2------|
|----3------3-------2------2-------3------3-------3-----3-----------|
|------------------3------3-----------------------------------------|


Please don't edit or use this tab without e-mailing me first.
Would love to hear your comments and please rate.

************************************

| /   slide up
| \   slide down
| h   hammer-on
| p   pull-off
| ~   vibrato
| <   Pick Slide
| *   harmonic
| x   Mute note
| b   Bend
| pb  Pre-bend
| br  Bend release
| pbr Pre-bend release
| brb Bend release bend

************************************
Tap to rate this tab
 
# A B C D E F G H I J K L M N O P Q R S T U V W X Y Z