Song name
# A B C D E F G H I J K L M N O P Q R S T U V W X Y Z

Silverchair - Hollywood Live tab

-------------------------------------------------------------------------------
		          Hollywood Live - Silverchair
-------------------------------------------------------------------------------
Tabbed by:qzuiilw
Email:qzuiilw@hotmail.com

Tuning:1/2 Down

Played Live at Rio check it out it's a catchy song,
Tuning is 1/2 step down then the E is tuned to D.

In the middle of the side of the road
|---------------------------------------------------------|
|---------------------------------------------------------|
|---------------------------------------------------------|
|---------------------------------------------------------|
|-0-2x2x2x2x2x2x2x0x0-2x2x2x2x2x2x2x0x0-2x2x2x2x2x2x2x0x0-|
|-0-2x2x2x2x2x2x2x0x0-2x2x2x2x2x2x2x0x0-2x2x2x2x2x2x2x0x0-|

|----------------------------|
|----------------------------|
|----------------------------|
|----------------------------|
|-2x2x2x2x2x2x2-77777766666--|
|-2x2x2x2x2x2x2-77777766666--|

|------------------------------------------------------------------|
|------------------------------------------------------------------|
|------------------------------------------------------------------|
|------------------------------------------------------------------|
|-7x7x7x7x7x5-4x44-7x7x7x7/8x4x44-7x7x7x7x7x5-4-0x3x/4-77777766666-|
|-7x7x7x7x7x5-4x44-7x7x7x7/8x4x44-7x7x7x7x7x5-4-0x3x/4-77777766666-|
I'm the first male lesbian
|---------------------------------------------------------|
|---------------------------------------------------------|
|---------------------------------------------------------|
|---------------------------------------------------------|
|-7x7x7x7x7x5-4x44-7x7x7\5/7-8-4-44-7x7x7x7x7x5-4x3x4x1x2-|
|-7x7x7x7x7x5-4x44-7x7x7\5/7-8-4-44-7x7x7x7x7x5-4x3x4x1x2-|
Easy, hopeless admiration of a Hollywood home
|----------------------------------------------------------------|
|----------------------------------------------------------------|
|----------------------------------------------------------------|
|----------------------------------------------------------------|
|-3x3x3x3535xx/7x7x7x7-3x3x3x3535xx/7x7x7x7-3x3x3x3535xx/7x7x7x7-|
|-3x3x3x3535xx/7x7x7x7-3x3x3x3535xx/7x7x7x7-3x3x3x3535xx/7x7x7x7-|
We're living in, we're living in a Hollywood home
|-------------------------------------------------------------------------|
|-------------------------------------------------------------------------|
|-------------------------------------------------------------------------|
|-------------------------------------------------------------------------|
|-2-2-2-2-2-2-2-0-0-0-2-2-2-2-2-2-2-0-0-0-2-2-2-2-2-2-2-0-0-0-2-2-2-2h3-3-|
|-2-2-2-2-2-2-2-0-0-0-2-2-2-2-2-2-2-0-0-0-2-2-2-2-2-2-2-0-0-0-2-2-2-2h3-3-|

|-----------------------------------------------------------|
|-----------------------------------------------------------|
|-----------------------------------------------------------|
|----10------7---444-4-4/555-5-55---------------------------|
|-777--77-555-55-222--22/333--333-3p0x0-3p0x0-3p0x0-3p0x0-3-|
|-777--77-555-55--------------------------------------------|
In the middle of the side of the road
|--------------------------------------------------------------------------------|
|--------------------------------------------------------------------------------|
|--------------------------------------------------------------------------------|
|--------------------------------------------------------------------------------|
|-7x7x7x7x7x5-4x44-x7x7/8\7x7h88-x4x44-7x7x7x7x7x5-4-3p0x0h4p0x0h1p0x0h2p0x0-0-0-|
|-7x7x7x7x7x5-4x44-x7x7/8\7x7h88-x4x44-7x7x7x7x7x5-4-3p0x0h4p0x0h1p0x0h2p0x0-0-0-|

|-----------------------------------------------------------------------------|
|-0---------------------------------------------------------------------------|
|-5b-------------------4/6-----------------5b---------------------------------|
|-7-5h7p5h7~-5h7p4h7-2-2/4-4h5p4p2h4p2-----5b-7p5h7p5-7p4h7-2-44-5p4-2h4-2----|
|-------------------------------------3/4---------------------------------3/4-|
|-------------------------------------3/4---------------------------------3/4-|

|-------------------------------------------------------------------------------|
|-------------------------------------------------------------------------------|
|-5b----------------------------------5b---------------------4/6----------------|
|-5b-7p5h7p5-7p4-7p2-44-5p4-2h4-2-----5b-5h7p5h7~-5h7p4h7-2--2/4-4h5p4p2h4p2----|
|--------------------------------3/4----------------------------------------3/4-|
|--------------------------------3/4----------------------------------------3/4-|
Red fist you'll pump blood
|-----------------------------------|
|-----------------------------------|
|-----------------------------------|
|-7-7-------------------------12b---|
|-5-5----------------7-7------------|
|--------------------5-5------------|
Hopeless admiration of a Hollywood home
|-----------------------------------------------------|
|-----------------------------------------------------|
|-----------------------------------------------------|
|-----------------------------------------------------|
|-7x7x7x7x7x7x7x7x-3333535-7x7x7x7x7x7x7x7-3333/7\535-|
|-7x7x7x7x7x7x7x7x-3333535-7x7x7x7x7x7x7x7-3333/7\535-|

|----------------------------------------------------------------------|
|--------------------------xx-x<3><4><5>-xx-x<3><4><5>-xx-xx-<3><4><5>-|
|--------------------------xx-x<3><4><5>-xx-x<3><4><5>-xx-xx-<3><4><5>-|
|--------------------------xx-x<3><4><5>-xx-x<3><4><5>-xx-xx-<3><4><5>-|
|-7x7x7x7x7x7x7x7x-3333535-xx-x----------xx-xx-xx------xx-xx-----------|
|-7x7x7x7x7x7x7x7x-3333535-xx-x----------xx-xx-xx------xx-xx-----------|

|----------------------------------------------------------------------------------|
|----------------------------------------------------------------------------------|
|----------------------------------------------------------------------------------|
|----------------------------------------------------------------------------------|
|-2-2h3p2--2h3p2-2h3p2h3p2-2h3p2--2h3p2-2h3p2-0-0-0-2-2h3p2--2h3p2-2h3p2h3p2-2h3p2-|
|-2-2h3p2--2h3p2-2h3p2h3p2-2h3p2--2h3p2-2h3p2-0-0-0-2-2h3p2--2h3p2-2h3p2h3p2-2h3p2-|

|--------------------------------------------------------------|
|--------------------------------------------------------------|
|--------------------------------------------------------------|
|----------------------------------------------5h7p5--4h5p4<3>-|
|-2-2h3p2--2h3p2-2h3p2h3p2-2h3p2--2h3p2-2h3p2------------------|
|-2-2h3p2--2h3p2-2h3p2h3p2-2h3p2--2h3p2-2h3p2------------------|
We're living in, we're living in a Hollywood home
|-------------------------------------------------------------------------|
|-------------------------------------------------------------------------|
|-------------------------------------------------------------------------|
|-------------------------------------------------------------------------|
|-2-2-2-2-2-2-2-0-0-0-2-2-2-2-2-2-2-0-0-0-2-2-2-2-2-2-2-0-0-0-2-2-2-2h3-3-|
|-2-2-2-2-2-2-2-0-0-0-2-2-2-2-2-2-2-0-0-0-2-2-2-2-2-2-2-0-0-0-2-2-2-2h3-3-|

|---------|
|---------|
|---------|
|-2/12b\2-|
|---------|
|---------|
We're living in,
|---------------------------------------------------------------------------------|
|---------------------------------------------------------------------------------|
|---------------------------------------------------------------------------------|
|---------------------------------------------------------------------------------|
|-2-2-2-2-2-2-2-0-0-0-2-2-2-2-2-2-2-0-0-0-2-2-2-2-2-2-2-0-0-0-2-2-2-2-2-2-2-0-0-0-|
|-2-2-2-2-2-2-2-0-0-0-2-2-2-2-2-2-2-0-0-0-2-2-2-2-2-2-2-0-0-0-2-2-2-2-2-2-2-0-0-0-|
Now that you've gone
|----------------------------------------------------------------|
|----------------------------------------------------------------|
|----------------------------------------------------------------|
|-------------------22222222-------------------------------------|
|-77777777-66666666-22222222-333333333---3p0-3p0-3p0-3p0-3p0-3---|
|-77777777-66666666----------333333333---3p0-3p0-3p0-3p0-3p0-3---|

************************************

| /   slide up
| \   slide down
| h   hammer-on
| p   pull-off
| ~   vibrato
| +   harmonic
| x   Mute note
| b   Bend
| pb  Pre-bend
| br  Bend release
| pbr Pre-bend release
| brb Bend release bend

************************************

e-mail me if you've got any questions or coments :)
Tap to rate this tab
 
# A B C D E F G H I J K L M N O P Q R S T U V W X Y Z