Song name
# A B C D E F G H I J K L M N O P Q R S T U V W X Y Z

Silverchair - Anthem For The Year 200o Real tab

Anthem for the year 2000
By silverchair
Tab by: Magdalena Abbott *bonji*
I Would like  dedicate this tab to cata and gori who are the best ^%$@”!%.....
Silverchair  fans 

 INTRO
E---------------------------------------------------------/
B---------------------------------------------------------/
G-----0—2—0----------------------------5------------------/
D-----0—2—0----------7-/--5-/--0---3---5---3--------------/
A--------------------7----5-/--0---3---3---3--------------/
E--------------------5-/--3-/--0---1-------1--------------/

Play this 4 times along the intro part

Then
We’re the youth.............................

And play the intro part when Daniel starts to sing : never knew that...........

Finished the chorus play this:

E---------------------------------------------------------/
B---------------------------------------------------------/ 
G -------------------5------------------5-----------------/
D -------------5--7---5/ 7--3-------7----5—7/3------------/
A---------------------------------------------------------/
E --------------------------------------------------------/

And still doing it to the part that he sings” never knew......

X chorus play the intro part:

E----------------------------------------------------------/
B----------------------------------------------------------/
G-----0—2—0-----------------------------5------------------/
D-----0—2—0----------7-/--5-/---0---3---5---3--------------/
A--------------------7-/--5-/---0---3---3---3--------------/
E--------------------5-/--3-/---0---1-------1--------------/



E-----------------------------------/
B-----------------------------------/
G-----------------5-----------------/
D-----------------5------3----------/
A-----------------3--/---3----------/
E--------------------/---1----------/

I hope you enjoy it  :)  
Tap to rate this tab
# A B C D E F G H I J K L M N O P Q R S T U V W X Y Z