Song name
# A B C D E F G H I J K L M N O P Q R S T U V W X Y Z

Silverchair - Anthem For The Year 2000 Real tab

anthem for the year 2000
by silverchair
tab by: magdalena abbott *bonji*
I would like dedicate this song to cata and gori who are the best %^*@$%$%$$..
silverchair fans


INTRO

e---------------------------------/
b--------------------------5------/
g--0-2-0-------------------5------/
d--0-2-0-------7--5-0--3-/-3--3---/
a--------------7--5-0--3-/----3---/
e--------------5--3-0--1-/----1---/

and play this along 4 times to the part when Daniel sings: we're the youth..

and then play it when he starts to sing: never knew .....

after the chorus play this

e----------------------------------------------------------------/
b----------------------------------------------------------------/
g---------------5----------------------5-------------------------/
d-------------7----5--7-/--3---------7----5--7-/--3--------------/
a----------------------------------------------------------------/
e----------------------------------------------------------------/

never knew that we live in  world with a mind could be so sure....

chorus

e---------------------------------/
b--------------------------5------/
g--0-2-0-------------------5------/
d--0-2-0-------7--5-0--3-/-3--3---/
a--------------7--5-0--3-/----3---/
e--------------5--3-0--1-/----1---/


riff:

e---------------/
b---------------/
g-----5-/-------/
d-----5-/--3----/
a-----3-/--3----/
e----------1----/

THAT'S ALL, I hope you enjoy it so  :)

Tap to rate this tab
# A B C D E F G H I J K L M N O P Q R S T U V W X Y Z