Song name
# A B C D E F G H I J K L M N O P Q R S T U V W X Y Z

Silverchair - Findaway tab

================================================================
                     Findaway - Silverchair
================================================================
                   As recorded by Silverchair
                (From the 1995 Album Frogstomp)

Words and Music by Silverchair

Tuning: (D A D G B e) - 'Drop D'


Legend:
.  = Palm Mute
*  = Harmonic
/  = Slide


Intro:

e--------------------------------------------------|
B--------------------------------------------------|
G--------------------------------------------------|
D--8--------8--------8--------8--------8--8--8--8--|
A--6--------6--------6--------6--------6--6--6--6--|
D--6--6--6--6--6--6--6--6--6--6--6--6--6--6--6--6--|
      .  .     .  .     .  .     .  .      


Verse:

e----------------------------------------------------------|
B----------------------------------------------------------|
G--10--10--10-10---5--5--5-5--5---8--8--8-8---3--3-3-3-3---|
D--10--10--10-10---5--5--5-5--5---8--8--8-8---3--3-3-3-3---|
A---8---8---8--8---3--3--3-3--3---6--6--6-6---1--1-1-1-1---|
D---8---8---8--8---3--3--3-3--3---6--6--6-6---1--1-1-1-1---|



e------------------------------------------------------------|
B------------------------------------------------------------|
G--10--10--10-10---5--5--5-5--5---8--8--8-x-x---8--8-8-8-8---|
D--10--10--10-10---5--5--5-5--5---8--8--8-x-x---8--8-8-8-8---|
A---8---8---8--8---3--3--3-3--3---6--6--6-x-x---6--6-6-6-6---|
D---8---8---8--8---3--3--3-3--3---6--6--6-x-x---6--6-6-6-6---|
                                        *    

Pre-Chorus

E-----------------------------|
B-----------------------------|
G-----6-----------------------|
D--4--6--4--------------------|
A--4--4-----4---3--3-3-1-1-3--|
D--4--4-----4---3--3-3-1-1-3--|


Chorus:

e--------------------------------------------------------------|
B--------------------------------------------------------------|
G--12--12--12-12---9--9--9-9--9---10--10--10-10---5--5-5-5-5---|
D--10--10--10-10---7--7--7-7--7----8---8---8--8---3--3-3-3-3---|
A--10--10--10-10---7--7--7-7--7----8---8---8--8---3--3-3-3-3---|
D--10--10--10-10---7--7--7-7--7----8---8---8--8---3--3-3-3-3---|



Bridge:

e---------------------------|
B---------------------------|
G--8--8--8-8---8--8-8-8-8---|
D--8--8--8-8---8--8-8-8-8---|
A--6--6--6-6---6--6-6-6-6---|
D--6--6--6-6---6--6-6-6-6---|
         * *   


Solo:

Backing Riff (Played quietly, along to the bass):

e-------------------------------------------------------------------------------------|
B-------------------------------------------------------------------------------------|
G-------------------------------------------------------------------------------------|
D--8----8--8--8--8--8--3---3--3----3--3--3--6---6--6----6--6--6--1---1--1----1--1--1--|
A--8----8--8--8--8--8--3---3--3----3--3--3--6---6--6----6--6--6--1---1--1----1--1--1--|
D--8----8--8--8--8--8--3---3--3----3--3--3--6---6--6----6--6--6--1---1--1----1--1--1--|


Solo:
e--------------------------------------------------------------------------------------|
B--3---3--3--3--3--3/6---6--6---6---6--6/9---9--9---9---9--9/11---11--11---11---11--11-|
G--3---3--3--3--3--3/5---5--5---5---5--5/8---8--8---8---8--8/10---10--10---10---10--10-|
D--------------------------------------------------------------------------------------|
A--------------------------------------------------------------------------------------|
D--------------------------------------------------------------------------------------|



Order:

Intro........(1x)
Verse........(2x)
Pre-Chorus...(4x)
Chorus.......(4x)
Verse........(1x)
Bridge.......(1x)
Pre-Chorus...(4x)
Chorus.......(4x)
Solo.........(4x)
Pre-Chorus...(4x)
Chorus.......(4x)
Tap to rate this tab
 
# A B C D E F G H I J K L M N O P Q R S T U V W X Y Z