Song name
# A B C D E F G H I J K L M N O P Q R S T U V W X Y Z

Silverchair - After All These Years tab

After All These Years
Silverchair
tabber: evokatoryheart
e-mail: a_fiend_upon_myself@hotmail.com

NOTE: the song is played in the key of ‘c#’. so after tuning the guitar down a half step, a ‘d’ chord shape is in actual fact a ‘c#’!!!
	Just play this right through! I prefer to strum the chorus but I put in the finger picking anyway.

INTRO
  D         g         a          
|-2---0---|---------|---------|---------|
|-------3-|-3-------|-3---2---|-0---0-2-|
|---2-----|-----0---|---2---2-|---2-----|
|-0-------|---0---0-|---------|---------|
|---------|---------|-0-------|-0-------|
|---------|-3-------|---------|---------|
  d         g         a          
|-2---0---|---------|---------|---------|
|-------3-|-3-------|-3---2---|-0---0-2-|
|---2-----|-----0---|---2---2-|---2-----|
|-0-------|---0---0-|---------|---------|
|---------|---------|-0-------|-0-------|
|---------|-3-------|---------|---------|
  d         g         a          
|-2---0---|---------|---------|---------|
|-------3-|-3-------|-3---2---|-0---0-2-|
|---2-----|-----0---|---2---2-|---2-----|
|-0-------|---0---0-|---------|---------|
|---------|---------|-0-------|-0-------|
|---------|-3-------|---------|---------|
  d         a     g         b
|-2---0---|-----|---------|----|
|-------3-|-3---|-3---3---|-4~-|
|---2-----|---2-|---------|----|
|-0-------|-----|---0---0-|----|
|---------|-0---|---------|-2~-|
|---------|-----|-3---3---|----|

VERSE
|-----------|-----------------|------------------|----------------------------|
|-----------|-----------------|------------------|----------------------------|
|-12-10-8-9-|---9---------7-8-|-----9--------7-8-|-----9--------7-8-----------|
|-----------|-----7--8-10-----|---7---7-8-10-----|---7---7-8-10---------------|
|-----------|-7---------------|-7----------------|-7--------------------------|
|-----------|-----------------|------------------|----------------------------|
  a 
|-----------------|
|-2---2---3---2---|
|---2---2---2---2-|
|-----------------|
|-0-------0-------|
|-----------------|

PRE-CHORUS
  Em      f         Em      f         Em      f         Em        d         c
|-----------------|-----------------|-----------------|---------|-----2---|----0~-|
|-0---0---1---1---|-0---0---1---1---|-0---0---1---1---|-0---0---|-------3-|-1-----|
|---0---0---2---2-|---0---0---2---2-|---0---0---2---2-|---0---0-|---2-----|---0---|
|-----------------|-----------------|-----------------|---------|-0-------|-------|
|-----------------|-----------------|-----------------|---------|---------|-3-----|
|-0-------1-------|-0-------1-------|-0-------1-------|-0-------|---------|-------|

VERSE
|-----------|-----------------|------------------|----------------------------|
|-----------|-----------------|------------------|----------------------------|
|-12-10-8-9-|---9---------7-8-|-----9--------7-8-|-----9--------7-8-----------|
|-----------|-----7--8-10-----|---7---7-8-10-----|---7---7-8-10---------------|
|-----------|-7---------------|-7----------------|-7--------------------------|
|-----------|-----------------|------------------|----------------------------|

 ‘WAKING ON A SUMMERS DAY’
  d                   Bb                   d                   a
|---------|---------|---------|-1-------||---------|---------|-----------------|
|-3---3---|-3---3---|-3---3---|-3---3---||-3---3---|-3---3---|-2---2---3---5---|
|---2---2-|---2---2-|---3---3-|---3---3-||---2---2-|---2---2-|---2---2---2---2-|
|-0-------|-0-------|---------|---------||-0-------|-0-------|-----------------|
|---------|---------|-1-------|-1-------||---------|---------|-0-------0---0---|
|---------|---------|---------|---------||---------|---------|-----------------|

CHORUS
  D                   F#m                 g         a
|-2-------|-2-------|-----2---|-----2---|-----3---|-----0---|
|-----3---|-----3---|-2-----2-|-2-----2-|-3-----3-|-2-----2-|
|---2---2-|---2---2-|---2-----|---2-----|---4-----|---2-----|
|-0-------|-0-------|---------|---------|---------|---------|
|---------|---------|---------|---------|---------|-0-------|
|---------|---------|-2-------|-2-------|-3-------|---------|
  d                   F#m                 g         a
|-2-------|-2-------|-----2---|-----2---|-----3---|-----0---|
|-----3---|-----3---|-2-----2-|-2-----2-|-3-----3-|-2-----2-|
|---2---2-|---2---2-|---2-----|---2-----|---4-----|---2-----|
|-0-------|-0-------|---------|---------|---------|---------|
|---------|---------|---------|---------|---------|-0-------|
|---------|---------|-2-------|-2-------|-3-------|---------|
  g         a
|-----3---|-----0---|
|-3-----3-|-2-----2-|
|---4-----|---2-----|
|---------|---------|
|---------|-0-------|
|-3-------|---------|

PRE-CHORUS
  Em      f         Em      f         Em      f         Em        d         c
|-----------------|-----------------|-----------------|---------|-----2---|----0~-|
|-0---0---1---1---|-0---0---1---1---|-0---0---1---1---|-0---0---|-------3-|-1-----|
|---0---0---2---2-|---0---0---2---2-|---0---0---2---2-|---0---0-|---2-----|---0---|
|-----------------|-----------------|-----------------|---------|-0-------|-------|
|-----------------|-----------------|-----------------|---------|---------|-3-----|
|-0-------1-------|-0-------1-------|-0-------1-------|-0-------|---------|-------|

VERSE
|-----------|-----------------|------------------|----------------------------|
|-----------|-----------------|------------------|----------------------------|
|-12-10-8-9-|---9---------7-8-|-----9--------7-8-|-----9--------7-8-----------|
|-----------|-----7--8-10-----|---7---7-8-10-----|---7---7-8-10---------------|
|-----------|-7---------------|-7----------------|-7--------------------------|
|-----------|-----------------|------------------|----------------------------|
  a
|-----------------|
|-2---2---3---3---|
|---2---2---2---2-|
|-----------------|
|-0-------0-------|
|-----------------|

CHORUS
  D                   F#m                 g         a
|-2-------|-2-------|-----2---|-----2---|-----3---|-----0---|
|-----3---|-----3---|-2-----2-|-2-----2-|-3-----3-|-2-----2-|
|---2---2-|---2---2-|---2-----|---2-----|---4-----|---2-----|
|-0-------|-0-------|---------|---------|---------|---------|
|---------|---------|---------|---------|---------|-0-------|
|---------|---------|-2-------|-2-------|-3-------|---------|
  d                   F#m                 g         a
|-2-------|-2-------|-----2---|-----2---|-----3---|-----0---|
|-----3---|-----3---|-2-----2-|-2-----2-|-3-----3-|-2-----2-|
|---2---2-|---2---2-|---2-----|---2-----|---4-----|---2-----|
|-0-------|-0-------|---------|---------|---------|---------|
|---------|---------|---------|---------|---------|-0-------|
|---------|---------|-2-------|-2-------|-3-------|---------|

  g         a
|-----3---|-----0---|
|-3-----3-|-2-----2-|
|---4-----|---2-----|
|---------|---------|
|---------|-0-------|
|-3-------|---------|

INTERLUDE
  D         g         a
|-2-------|-----3---|-----0---|
|-----3---|-3-----3-|-2-----2-|
|---2---2-|---4-----|---2-----|
|-0-------|---------|---------|
|---------|---------|-0-------|
|---------|-3-------|---------|
  d         g         a
|-2-------|-----3---|-----0---|
|-----3---|-3-----3-|-2-----2-|
|---2---2-|---4-----|---2-----|
|-0-------|---------|---------|
|---------|---------|-0-------|
|---------|-3-------|---------|
  d         g         a          
|-2-------|-----3---|-----0---|-----0---|
|-----3---|-3-----3-|-2-----2-|-2-----2-|
|---2---2-|---4-----|---2-----|---2-----|
|-0-------|---------|---------|---------|
|---------|---------|-0-------|-0-------|
|---------|-3-------|---------|---------|

INTRO
  D         g         a          
|-2---0---|---------|---------|---------|
|-------3-|-3-------|-3---2---|-0---0-2-|
|---2-----|-----0---|---2---2-|---2-----|
|-0-------|---0---0-|---------|---------|
|---------|---------|-0-------|-0-------|
|---------|-3-------|---------|---------|
  d         g         a          
|-2---0---|---------|---------|---------|
|-------3-|-3-------|-3---2---|-0---0-2-|
|---2-----|-----0---|---2---2-|---2-----|
|-0-------|---0---0-|---------|---------|
|---------|---------|-0-------|-0-------|
|---------|-3-------|---------|---------|
  d         g         a          
|-2---0---|---------|---------|---------|
|-------3-|-3-------|-3---2---|-0---0-2-|
|---2-----|-----0---|---2---2-|---2-----|
|-0-------|---0---0-|---------|---------|
|---------|---------|-0-------|-0-------|
|---------|-3-------|---------|---------|
  d         a     g                 Gm
|-2---0---|-----|-----------------|----|
|-------3-|-3---|-3---3---3---3---|----|
|---2-----|---2-|-----------------|-3~-|
|-0-------|-----|---0---0---0---0-|----|
|---------|-0---|-----------------|----|
|---------|-----|-3---3---3---3---|-3~-|

CHORUS
  D                   F#m                 g         a
|-2-------|-2-------|-----2---|-----2---|-----3---|-----|
|-----3---|-----3---|-2-----2-|-2-----2-|-3-----3-|-2---|
|---2---2-|---2---2-|---2-----|---2-----|---4-----|---2-|
|-0-------|-0-------|---------|---------|---------|-----|
|---------|---------|---------|---------|---------|-0---|
|---------|---------|-2-------|-2-------|-3-------|-----|
  d                   F#m                 g         a
|-2-------|-2-------|-----2---|-----2---|-----3---|-----|
|-----3---|-----3---|-2-----2-|-2-----2-|-3-----3-|-2---|
|---2---2-|---2---2-|---2-----|---2-----|---4-----|---2-|
|-0-------|-0-------|---------|---------|---------|-----|
|---------|---------|---------|---------|---------|-0---|
|---------|---------|-2-------|-2-------|-3-------|-----|

  d                   F#m                 g         a
|-2-------|-2-------|-----2---|-----2---|-----3---|-----|
|-----3---|-----3---|-2-----2-|-2-----2-|-3-----3-|-2---|
|---2---2-|---2---2-|---2-----|---2-----|---4-----|---2-|
|-0-------|-0-------|---------|---------|---------|-----|
|---------|---------|---------|---------|---------|-0---|
|---------|---------|-2-------|-2-------|-3-------|-----|
  g         a
|-----3---|-----0---|
|-3-----3-|-2-----2-|
|---4-----|---2-----|
|---------|---------|
|---------|-0-------|
|-3-------|---------|

INTERLUDE
  D         g         a
|-2-------|-----3---|-----0---|
|-----3---|-3-----3-|-2-----2-|
|---2---2-|---4-----|---2-----|
|-0-------|---------|---------|
|---------|---------|-0-------|
|---------|-3-------|---------|
  d         g         a
|-2-------|-----3---|-----0---|
|-----3---|-3-----3-|-2-----2-|
|---2---2-|---4-----|---2-----|
|-0-------|---------|---------|
|---------|---------|-0-------|
|---------|-3-------|---------|
  d         g         a                   d
|-2-------|-----3---|-----0---|-----0---|-2-|
|-----3---|-3-----3-|-2-----2-|-2-----2-|-3-|
|---2---2-|---4-----|---2-----|---2-----|-2-|
|-0-------|---------|---------|---------|-0-|
|---------|---------|-0-------|-0-------|---|
|---------|-3-------|---------|---------|---|
                     slow down . . . . 

thats all folks. hope u enjoy!
any problems or if u want something changed, just e-mail me and i will do my best!!!
Tap to rate this tab
# A B C D E F G H I J K L M N O P Q R S T U V W X Y Z