Song name
# A B C D E F G H I J K L M N O P Q R S T U V W X Y Z

Silverchair - Black Tangled Heart tab

Black Tangled Heart
Silverchair
Neon Ballroom Album

I started learning guitar with Silverchair songs and could never find a decent enough 
for this song.. well now that i can play it, I thought others could use this!

Use thumb on E string for intro.

Intro
e|------------0----------------------------------0---------------------------|
B|-6--6---------6-------1-1---0h1------------------0---------0-----------0---|
G|-7----7---------7-----2--------0h2-----------------0---------0-----------0-|
D|-8------8---------8---3------------3----0----2-------0h2-------2-----2-----|
A|-8--------8-----------3--3-----------3-------------------2-----------------|
E|-6--------------------1---------------------0---------------------0--------|

e|-------------------------------0------------------------------------------|
B|-----------0--------6--6---------6-------1-1---0h1------------------0-----|
G|-------------0------7----7---------7-----2--------0h2-----------------0---|
D|-2--0h2--------0----8------8---------8---3------------3----0-----2------2-|
A|--------------------8--------8-----------3---3----------3-----------------|
E|--------0-----------6--------------------1--------------------0-----------|

e|----------------------------------------|
B|---------------------0------------------|
G|--------0--------------0----------------|
D|-0h2-------2/4\2---------0h2----2--2/4--|
A|-----2----------------------------------|
E|------------------0-----------0---------|


Verse - Part1
e|--------------------------------------------------------------------------|
B|-----1------------1-----------1-----------1----------0----------0---------|
G|-------0------------0-----------0-----------0----------0----------0-------|
D|---2-----2------0-----0-----2-----2-----0-----0----2-----2----2-----2-----|
A|-3------------------------3-----------------------------------------------|
E|--------------2-----------------------2----------0----------0----------0--|

e|---------------------|
B|---0-----------0-----|
G|-----0-----------0---| x2
D|-------2-----2-----2-|
A|-2-------------------|
E|----------0----------|

then
Verse - Part2
e|--------------------------------------------------------------------------|
B|-----1-----------1-----------0------------0----------0----------0---------|
G|-------0-----------0-----------0------------0----------0----------0-------|
D|---2-----2-----0-----0-----------3-----4------4----2-----2----2-----2-----|
A|-3-------------------------3---------5------------------------------------|
E|-------------2-----------1-----------------------0----------0----------0--|

e|------------------------|
B|---0----------0---------|
G|-----0----------0-------|
D|-2-----2----2-----2-----|
A|------------------------|
E|----------0-------------|

then
Verse - Part1 again.

Chorus
e|---------------0-------                          --0---|
B|-6----1--0h1---0------- then finish it off with  --0---|
G|-7----2--2-----0-------                          --0---|
D|-8----3--3-----2---x3--                          --0h2-|
A|-8----3--3-----2-------                          --2---|
E|-6----1--1-----0-------                          --0---|

All parts of Verse again, then Chorus again.

Interlude
e|--------0---------------------------------0-0---0---0-0------------2----|
B|--------0-------------------------1--1----7/8---7---3/5---0----1---3----|
G|-0------0-----0---0---0----0------0--0----0-0---0---0-0---4b---0---0----|
D|-8------2-----5--/7--/9---/12-----2--0h2----9---7---------4b---2---0----|
A|-7------3-----7--/9--/10--/14-----3--3------10-----------------3---3----|
E|-0------------0---0---0----0--------------------------------------------|

e|--3------------------------------------------------------------------------|
B|--1---------------------------0-------------0------------0-----------0-----|
G|--0---0---0---0----0------------0-------------0------------0-----------0---|
D|--0---5--/7--/9---/12------2------2------4------4------------0-----3-----3-|
A|--3---7--/9--/10--/14----3-------------2--------------2----------1---------|
E|------0---0---0----0--------------------------------3----------------------|

e|-----
B|-----
G|--0--
D|--8--
A|--7--
E|--0--

Repeat Chorus again

Outro
e|--------------------------------------------------------------------------|
B|--------------------------------------------------------------------------|
G|-9--9--9------------9------------9------------9---------9---------9-------|
D|-x--x--x--9--8--7---x--8--7--5---x--9--8--7---x--9--8---x--8--7---x--9--8-|
A|-7--7--7--x--x--x---7--x--x--x---7--x--x--x---7--x--x---7--x--x---7--x--x-|
E|----------7--6--5------6--5--3------7--6--5------7--6------6--5------7--6-|

This is my first proper tab so hope it's ok. I love Silverchair, they are truely a great 
Lush song!!

Rob
quiksilverchair@hotmail.com
Tap to rate this tab
 
# A B C D E F G H I J K L M N O P Q R S T U V W X Y Z