Song name
# A B C D E F G H I J K L M N O P Q R S T U V W X Y Z

Silverchair - Emotion Sickness tab

 Silverchair-Emotion Sickness Intro

 e--0---0---0---0---0---0---0--0--0--0--0--0-
 B--0---0---0---0---0---0---0--0--0--0--0--0-
 G--9---9---9---9---9---9---2--2--2--4--4--4-
 D--11--11--11--11--11--11--2--2--2--6--6--6-
 A--11--11--11--11--11--11--0--0--0--7--7--7-
 E--9---9---9---0---0---0------------4--4--4-

 e--0---0---0---0---0---0--0--0--0--4--4--4---
 B--0---0---0---0---0---0--0--0--0--0--0--0---
 G--9---9---9---9---9---9--2--2--2--2--2--2---
 D--11--11--11--11--11--11-2--2--2--2--2--2---
 A--11--11--11--11--11--11-0--0--0--x--x--x---
 E--9---9---9---0---0---0-----------4--4--4---

 This is just the Intro.
 Daniel Johns actually plays this song in Open C#m tuning,
 but I wrote it out here in standard.
 Have fun.
Tap to rate this tab
 
# A B C D E F G H I J K L M N O P Q R S T U V W X Y Z